Aller au contenu

[Muse] Time is running out


Messages recommandés

After 8 bars this is played quietly;

e--12-------11------------12-13-10------
B-----13-10----13-10-9-12-----------12--
G---------------------------------------    2  times
D---------------------------------------
A---------------------------------------
E---------------------------------------

Pre Chorus (palm muted)
   Bury it...	     I won't let you bury it......   I wont' let you
e-------------------------------------------------------------------
B---0-0-0-1-1-1-1-1-0-0-3-3-1-1-0-0-0-0-0-1-1-1-1-1-0-0-3-3-1-1-0-0-
G---2-2-2-2-2-2-2-2-0-0-0-0-0-0-0-0-2-2-2-2-2-2-2-2-0-0-0-0-0-0-0-0-
D---3-3-3-3-3-3-3-3-0-0-0-0-0-0-0-0-2-2-2-2-2-2-2-2-0-0-0-0-0-0-0-0-
A-------------------------------------------------------------------
E-------------------------------------------------------------------
   Smother it....   I won't let you murder it....	Our time is....
e-----------------------------------------------------------------------
B---0-0-0-1-1-1-1-1-0-0-3-3-1-1-0-0-0-0-0-1-1-1-1-1-5-5-----------------
G---2-2-2-2-2-2-2-2-0-0-0-0-0-0-0-0-2-2-2-2-2-2-2-2-5-5-12-12-10-10-9-9-
D---3-3-3-3-3-3-3-3-0-0-0-0-0-0-0-0-2-2-2-2-2-2-2-2-5-5-----------------
A---------------------------------------------------3-3-10-10-8--8--7-7-
E-----------------------------------------------------------------------

Chorus:

Running out....	      Our time is running out....    you can't push it..
e-----------------------------------------------------------------------
B-----------------------------------------------------------------------
G-2-2-2-2-2-2-2-2-4-4-4-4-4-4-4-4-5-5-5-5-5-5-5-5-9--9--12-12-10-10-9-9-
D-3-3-3-3-3-3-3-3-3-3-3-3-3-3-3-3-7-7-7-7-7-7-7-7-10-10-----------------
A-3-3-3-3-3-3-3-3-5-5-5-5-5-5-5-5-7-7-7-7-7-7-7-7-10-10-10-10-8--8--7-7-
E-1-1-1-1-1-1-1-1-3-3-3-3-3-3-3-3-5-5-5-5-5-5-5-5-8--8------------------

 Underground... you can't stop it screaming out...
e-----------------------------------------------------------------
B-----------------------------------------------------------------
G-2-2-2-2-2-2-2-2-4-4-4-4-4-4-4-4-5-5-5-5-5-5-5-5-----------------
D-3-3-3-3-3-3-3-3-3-3-3-3-3-3-3-3-7-7-7-7-7-7-7-7-3-3---3-5-5---5-
A-3-3-3-3-3-3-3-3-5-5-5-5-5-5-5-5-7-7-7-7-7-7-7-7-----3-------5---
E-1-1-1-1-1-1-1-1-3-3-3-3-3-3-3-3-5-5-5-5-5-5-5-5-1-1---1-3-3---3-

Riff before 2nd verse (tremolo picking)

e---12--------11----------------12-13---10----
B-------13-10-----13-11-9---12-------------12-
G---9---------8-----------------9--10---7-----
D-------10-7------10-7--6---9--------------9-- 
A---------------------------------------------
E---------------------------------------------

Verse 2
 I wanted freedom....
e----------------------------------------------- 
B-----------------------------------------------
G-2-2-5-2---4-4-2-4-------9---------------------  3 times
D-2-2-5-2---4-4-2-4---2-2-9-2---3-3-----5-5-----
A-0-0-3-0---2-2-0-2---2-2-7-2-------3-------5---
E---------------------0-0---0---1-1---1-3-3---3- /


Pre Chorus, (strummed, not palm muted)
   Bury it...	     I won't let you bury it......   I wont' let you
e-------------------------------------------------------------------
B---0-0-0-1-1-1-1-1-0-0-3-3-1-1-0-0-0-0-0-1-1-1-1-1-0-0-3-3-1-1-0-0-
G---2-2-2-2-2-2-2-2-0-0-0-0-0-0-0-0-2-2-2-2-2-2-2-2-0-0-0-0-0-0-0-0-
D---3-3-3-3-3-3-3-3-0-0-0-0-0-0-0-0-2-2-2-2-2-2-2-2-0-0-0-0-0-0-0-0-
A-------------------------------------------------------------------
E-------------------------------------------------------------------
   Smother it....   I won't let you murder it....	Our time is....
e-----------------------------------------------------------------------
B---0-0-0-1-1-1-1-1-0-0-3-3-1-1-0-0-0-0-0-1-1-1-1-1-5-5-----------------
G---2-2-2-2-2-2-2-2-0-0-0-0-0-0-0-0-2-2-2-2-2-2-2-2-5-5-12-12-10-10-9-9-
D---3-3-3-3-3-3-3-3-0-0-0-0-0-0-0-0-2-2-2-2-2-2-2-2-5-5-----------------
A---------------------------------------------------3-3-10-10-8--8--7-7-
E-----------------------------------------------------------------------

Chorus:

Running out....	      Our time is running out....    you can't push it..
e-----------------------------------------------------------------------
B-----------------------------------------------------------------------
G-2-2-2-2-2-2-2-2-4-4-4-4-4-4-4-4-5-5-5-5-5-5-5-5-9--9--12-12-10-10-9-9-
D-3-3-3-3-3-3-3-3-3-3-3-3-3-3-3-3-7-7-7-7-7-7-7-7-10-10-----------------
A-3-3-3-3-3-3-3-3-5-5-5-5-5-5-5-5-7-7-7-7-7-7-7-7-10-10-10-10-8--8--7-7-
E-1-1-1-1-1-1-1-1-3-3-3-3-3-3-3-3-5-5-5-5-5-5-5-5-8--8------------------

 Underground.....you can't stop it screaming out, how did it come to this...
e-----------------------------------------------------------------------
B-----------------------------------------------------------------------
G-2-2-2-2-2-2-2-2-4-4-4-4-4-4-4-4-5-5-5-5-5-5-5-5-9--9--12-12-10-10-9-9-
D-3-3-3-3-3-3-3-3-3-3-3-3-3-3-3-3-7-7-7-7-7-7-7-7-10-10-----------------
A-3-3-3-3-3-3-3-3-5-5-5-5-5-5-5-5-7-7-7-7-7-7-7-7-10-10-10-10-8--8--7-7-
E-1-1-1-1-1-1-1-1-3-3-3-3-3-3-3-3-5-5-5-5-5-5-5-5-8--8------------------

 ooooh oooh......
e-5-5-5-5-5-5-5-5-5-5-5-5-5-5-5-5-5-5-5-5-5-5-5-5-5-5-5-5-5-5-5-5-
B-6-6-6-6-6-6-6-6-5-5-5-5-5-5-5-5-6-6-6-6-6-6-6-6-5-5-5-5-5-5-5-5-
G-7-7-7-7-7-7-7-7-5-5-5-5-5-5-5-5-7-7-7-7-7-7-7-7-5-5-5-5-5-5-5-5-
D-7-7-7-7-7-7-7-7-7-7-7-7-7-7-7-7-7-7-7-7-7-7-7-7-7-7-7-7-7-7-7-7-
A-5-5-5-5-5-5-5-5-7-7-7-7-7-7-7-7-5-5-5-5-5-5-5-5-7-7-7-7-7-7-7-7-
E-----------------5-5-5-5-5-5-5-5-----------------5-5-5-5-5-5-5-5-

			yaaaaaaaaaahh.....
e-5-5-5-5-5-5-5-5-5-5-5-5-5-5-5-5-----0-------0---0-0-0-0-0-0-0-0-
B-6-6-6-6-6-6-6-6-5-5-5-5-5-5-5-5-----3-------3---3-3-3-3-3-3-3-3-
G-7-7-7-7-7-7-7-7-5-5-5-5-5-5-5-5-----1-------1---1-1-1-1-1-1-1-1-
D-7-7-7-7-7-7-7-7-7-7-7-7-7-7-7-7-2---2---2---2-2-2-2-2-2-2-2-2-2-
A-5-5-5-5-5-5-5-5-7-7-7-7-7-7-7-7-2---2---2---2-2-2-2-2-2-2-2-2-2-
E-----------------5-5-5-5-5-5-5-5-0---0---0---0-0-0-0-0-0-0-0-0-0-

Bass riff for 4 bars then this twice:

e---12-------12-------12-------|---11-------11----------|
B---------13-------13-------13-|------13-------13----13-|
G------14-------14-------14----|---------14-------14----|

e---------10-------10-------|---8-------|------10-------10-|
G------12-------12----12----|-----10----|---12-------12----|
B---13-------13----------13-|--------10-|---------12-------|

Prechorus again:

Pre Chorus, (strummed, not palm muted)
   Bury it...	     I won't let you bury it......   I wont' let you
e-------------------------------------------------------------------
B---0-0-0-1-1-1-1-1-0-0-3-3-1-1-0-0-0-0-0-1-1-1-1-1-0-0-3-3-1-1-0-0-
G---2-2-2-2-2-2-2-2-0-0-0-0-0-0-0-0-2-2-2-2-2-2-2-2-0-0-0-0-0-0-0-0-
D---3-3-3-3-3-3-3-3-0-0-0-0-0-0-0-0-2-2-2-2-2-2-2-2-0-0-0-0-0-0-0-0-
A-------------------------------------------------------------------
E-------------------------------------------------------------------

   Smother it....   I won't let you murder it....	Our time is....
e-----------------------------------------------------------------------
B---0-0-0-1-1-1-1-1-0-0-3-3-1-1-0-0-0-0-0-1-1-1-1-1-5-5-----------------
G---2-2-2-2-2-2-2-2-0-0-0-0-0-0-0-0-2-2-2-2-2-2-2-2-5-5-12-12-10-10-9-9-
D---3-3-3-3-3-3-3-3-0-0-0-0-0-0-0-0-2-2-2-2-2-2-2-2-5-5-----------------
A---------------------------------------------------3-3-10-10-8--8--7-7-
E-----------------------------------------------------------------------

Chorus again:

Running out....	      Our time is running out....    you can't push it..
e-----------------------------------------------------------------------
B-----------------------------------------------------------------------
G-2-2-2-2-2-2-2-2-4-4-4-4-4-4-4-4-5-5-5-5-5-5-5-5-9--9--12-12-10-10-9-9-
D-3-3-3-3-3-3-3-3-3-3-3-3-3-3-3-3-7-7-7-7-7-7-7-7-10-10-----------------
A-3-3-3-3-3-3-3-3-5-5-5-5-5-5-5-5-7-7-7-7-7-7-7-7-10-10-10-10-8--8--7-7-
E-1-1-1-1-1-1-1-1-3-3-3-3-3-3-3-3-5-5-5-5-5-5-5-5-8--8------------------

 Underground... you can't stop it screaming out...how did it come to this...
e-----------------------------------------------------------------------
B-----------------------------------------------------------------------
G-2-2-2-2-2-2-2-2-4-4-4-4-4-4-4-4-5-5-5-5-5-5-5-5-9--9--12-12-10-10-9-9-
D-3-3-3-3-3-3-3-3-3-3-3-3-3-3-3-3-7-7-7-7-7-7-7-7-10-10-----------------
A-3-3-3-3-3-3-3-3-5-5-5-5-5-5-5-5-7-7-7-7-7-7-7-7-10-10-10-10-8--8--7-7-
E-1-1-1-1-1-1-1-1-3-3-3-3-3-3-3-3-5-5-5-5-5-5-5-5-8--8------------------

ooooh oooh......
e-5-5-5-5-5-5-5-5-5-5-5-5-5-5-5-5-5-5-5-5-5-5-5-5-5-5-5-5-5-5-5-5-
B-6-6-6-6-6-6-6-6-5-5-5-5-5-5-5-5-6-6-6-6-6-6-6-6-5-5-5-5-5-5-5-5-
G-7-7-7-7-7-7-7-7-5-5-5-5-5-5-5-5-7-7-7-7-7-7-7-7-5-5-5-5-5-5-5-5-
D-7-7-7-7-7-7-7-7-7-7-7-7-7-7-7-7-7-7-7-7-7-7-7-7-7-7-7-7-7-7-7-7-
A-5-5-5-5-5-5-5-5-7-7-7-7-7-7-7-7-5-5-5-5-5-5-5-5-7-7-7-7-7-7-7-7-
E-----------------5-5-5-5-5-5-5-5-----------------5-5-5-5-5-5-5-5-

			yaaaaaaaaaahh.....
e-5-5-5-5-5-5-5-5-5-5-5-5-5-5-5-5-----0-------0---0-0-0-0-0-0-0-0-
B-6-6-6-6-6-6-6-6-5-5-5-5-5-5-5-5-----3-------3---3-3-3-3-3-3-3-3-
G-7-7-7-7-7-7-7-7-5-5-5-5-5-5-5-5-----1-------1---1-1-1-1-1-1-1-1-
D-7-7-7-7-7-7-7-7-7-7-7-7-7-7-7-7-2---2---2---2-2-2-2-2-2-2-2-2-2-
A-5-5-5-5-5-5-5-5-7-7-7-7-7-7-7-7-2---2---2---2-2-2-2-2-2-2-2-2-2-
E-----------------5-5-5-5-5-5-5-5-0---0---0---0-0-0-0-0-0-0-0-0-0-

Outro, (tremolo picking v. fast!)
 1, 2, 3, 4	1, 2, 3, 4    1, 2, 3, 4    1, 2, 3, 4
e-------------|-------------|-------------|-------------
B-------------|-------------|-------------|-------------
G-------------|-------------|-------------|-------------
D-14-14-14-14-|-13-13-13-13-|-12-12-12-12-|-10-10-10---
A-------------|-------------|-------------|-------------
E-12-12-12-12-|-11-11-11-11-|-10-10-10-10-|-8--8--8----
				   Slide down and off at the end

Lien à poster
Partager sur d’autres sites

Veuillez vous connecter pour commenter

Vous pourrez laisser un commentaire après vous êtes connecté.



Connectez-vous maintenant
×
×
  • Créer...