Aller au contenu
Knight-T

[Neil Zaza] I'm alright

Messages recommandés

Bon je suppose que personne connaît >_< Je suis tombé sous le charme de cette vidéo, notamment de l'intro (qui est très jolie j'trouve), mais impossible de voir ce qu'il fait exactement (je bidouille un peu pour trouver...)

 

http://fr.youtube.com/watch?v=u6G-W9Gci6I&feature=related

 

Il faut regarder entre 0:30 et 2:30. Je voudrais juste les accords parce que j'ai dû mal à les discerner X_x.

 

Merci d'avance !

 

PS : La suite est bien aussi, bien que cette musique soit en meilleur qualité sur d'autres vidéo =)


-Vice-Champion du monde de pétanque

-Triple Vainqueur du lancer de Tong en Angola

-Elu mister Université dans la catégorie "Glandeur"

Partager ce message


Lien à poster
Partager sur d’autres sites

bé, Pour lire les tab's comme cela, Car j'ai essayé cherché sur le net... Mais sans succès..

 

Attend la charmante Bab'z (Babzoo) :top:


Un sourire ne vaut rien, mais il apporte beaucoup !

- A vécu les 80 000 Posts -

- A vécu les 100 000 Posts -

- A Poster le 100 000e Post- Le Flood, Ma vie.

- 400 mess en Une soirée-

Partager ce message


Lien à poster
Partager sur d’autres sites

j'ai pas les accord mais les arpèges si tu veux...

 

E|----------------11--12----------19-17-16h17p16---------
B|------9------12--------------17----------------19--17--
G|----------11-------------------------------------------
D|----9---9-----------------18---------------------------
A|--7--------------------16------------------------------
E|-------------------------------------------------------


E|-----------------------------------------------------16
B|-------12-------14-16-17--------17-16-------------16---
G|--------------------------------------16---------------
D|----14-------14--------------18----------16----14------
A|-11-------12--------------16----------------19---------
E|-------------------------------------------------------


E|-------14-16-17----------------------------------------
B|----------------------17-16-------------------12-------
G|----16----------------------16-------------------------
D|-13----------------18----------16----------14-------14-
A|----------------16----------------19-18-11-------12----
E|-------------------------------------------------------


E|------------------------------19------------------------
B|--14-16-17-------17--------19----------14----16----17---
G|--------------------------------------------------------
D|--------------18--------------------14----14----14----14
A|-----------16-------16__18-------12---------------------
E|----------------------SL--------------------------------


E|--------------------------------------------14----------------19
B|-------14-16-16b-14h16p14-------16----17-------16-------16-17---
G|----------------------------------------------------------------
D|----16-----------------------16----16----16----------18---------
A|-13-----------------------14----------------------15------------
E|----------------------------------------------------------------


E|----------------------0----0---------------------------------19
B|-17---16-16---14-14---0------0-----4-----7-------16-------19---
G|----------------------2--2-------------------------------------
D|-18---16-16---14-14---2----------4-----9------16-------21------
A|-16---14-14---12-12---0--------2-----6-----14-------18---------
E|---------------------------------------------------------------


() ()

 

(>'.')LAAAaaaaapIIIiiiiiiNNNN !

 

(")_(")

 

*******

Partager ce message


Lien à poster
Partager sur d’autres sites

On dit merci Bab'z :top:


Un sourire ne vaut rien, mais il apporte beaucoup !

- A vécu les 80 000 Posts -

- A vécu les 100 000 Posts -

- A Poster le 100 000e Post- Le Flood, Ma vie.

- 400 mess en Une soirée-

Partager ce message


Lien à poster
Partager sur d’autres sites

xD

 

minip il me fait de la pub maintenant!


() ()

 

(>'.')LAAAaaaaapIIIiiiiiiNNNN !

 

(")_(")

 

*******

Partager ce message


Lien à poster
Partager sur d’autres sites

ça t'arrange =D


Un sourire ne vaut rien, mais il apporte beaucoup !

- A vécu les 80 000 Posts -

- A vécu les 100 000 Posts -

- A Poster le 100 000e Post- Le Flood, Ma vie.

- 400 mess en Une soirée-

Partager ce message


Lien à poster
Partager sur d’autres sites

bah ouais xD


() ()

 

(>'.')LAAAaaaaapIIIiiiiiiNNNN !

 

(")_(")

 

*******

Partager ce message


Lien à poster
Partager sur d’autres sites

Merci babzoo ! J'vais essayer ça demain ;)

 

AthenA714 >>> Bah j'trouve ça sympa ! Vu que je suis un peu "touche à tout", après tous les gouts sont dans la nature :p


-Vice-Champion du monde de pétanque

-Triple Vainqueur du lancer de Tong en Angola

-Elu mister Université dans la catégorie "Glandeur"

Partager ce message


Lien à poster
Partager sur d’autres sites

Ah oui loin de moi l'idée de dire que c'était du caca (enfin si jlai dis un peu mais bon, second degré tout ca), tout le monde a le droit d'aimer ce qu'il veut, mais moi je peux pas. J'avoue j'aurais pu me passer de cette intervention, mais neil zaza c'est une des rares exceptions ou je ramène ma gueule pour ne rien dire. Faut dire que la première fois que j'en ai entendu parlé, on me l'a présenté comme étant "le meilleur gratteux du monde sisi jtassure il est super mega bon et ses morceaux sont tous super géniaux et tout". Moi j'aime pas, c'est un fait, mais qu'on vienne pas me raconter que c'est le meilleur gratteux du monde non plus...

 

Voila c'était l'intervention inutile du jour, ca ne se reproduira plus désolé :cache:

Partager ce message


Lien à poster
Partager sur d’autres sites

Oh c'est pas grave xD T'as juste eu un traumatisme Neil Zazien (ça m'a fait pareil avec Pink Floyd, on m'en a tellement parlé comme des dieux que quand j'ai écouté, j'ai été déçu, sans les critiqué hein !) ^^' Si il fallait faire que des post utiles...j'en connais qui parleraient plus :p (hein Karlik ? xD)

 

Après, c'est sûr que c'est pas le meilleur gratteux du monde, en plus, il y a tellement de styles différents que personne ne peut vraiment l'être...


-Vice-Champion du monde de pétanque

-Triple Vainqueur du lancer de Tong en Angola

-Elu mister Université dans la catégorie "Glandeur"

Partager ce message


Lien à poster
Partager sur d’autres sites

Veuillez vous connecter pour commenter

Vous pourrez laisser un commentaire après vous êtes connecté.



Connectez-vous maintenant

×
×
  • Créer...