Aller au contenu

[Nessbeal] Je suis un salaud


Messages recommandés

Hey !

 

Chose promise :

 

INTRO Arpège :


e-------------------
B--6---6---6----5---
G--7---7---7----7---
D----7--------7-----
A--5-------5----5---
E-------------------    ça x2

Intro partie solo :

e---------------------------------------5h6p5----------------------
B---------6-6-5-6~--------6-8-6-8/10----------8-6----6-6h8p6-------
G----------------------/7-------------------------/7---------------
D------------------------------------------------------------------
A------------------------------------------------------------------
E------------------------------------------------------------------

e---------------------------------------5h6p5------5h6p5-----------
B---------6-6-5-6~--------6-8-6-8/10----------8-6--------8-6-------
G----------------------/7------------------------------------------
D------------------------------------------------------------------
A------------------------------------------------------------------
E------------------------------------------------------------------

Pour tout le reste de la chanson c'est  : dm  -   A#   -   A

 

Si tu as des problèmes à jouer ça n'hésite pas, pour les accords si tu galères je peux t'aider les mettres sur les lyrics voir faire une petite vidéo pour montré comment jouer tout ça.

Lien à poster
Partager sur d’autres sites

Mille merci :)

C'est vraiment Nice!

 

J'tchek ça demain! j'ai pas ma gratte sur oim.

C'est super cool en tout cas.

Et il y a sans doute moyen que j'te solicite pour avoir 2/3 infos sur la maniere de jouer le morceau.

 

Thanks!

 

Bonne soirée, à bientot ;)

Lien à poster
Partager sur d’autres sites

Oui je viens de vérifier c'est bien ce que je trouve,

 

Il y à quand même une chose à prendre en compte c'est les changements d'accords, tu as une grille de 4 mesures, les deux premières pas de soucis c'est du Dm, ensuite tu as une demi mesure du A# et une mesure et demi de A

 

Joues les en barré comme ça c'est assez simple :

Dm : x57765

A# : 688766

A : 577655

 

pour info c'est les mêmes accords que l'hymne de nos campagne de Tryo et surement beaucoup d'autres chansons. Bref si vraiment tu ne vois pas je peux toujours te faire une vidéo pour expliquer.

Lien à poster
Partager sur d’autres sites
  • 1 year later...

Veuillez vous connecter pour commenter

Vous pourrez laisser un commentaire après vous êtes connecté.



Connectez-vous maintenant
×
×
  • Créer...