Aller au contenu

[Nick Mulvey] Ailsa Craig


Messages recommandés

Bonjour à tous !

 

je suis à la recherche d'une tablature complète du (magnifique) morceau Ailsa Craig de Nick Mulvey.

Y aurait-il une âme très charitable qui pourrait m'aider la dessus ?

Etant novice (début d'apprentissage en septembre dernier, à raison d'1h par jour .. quand je peux :p), l'idéal serait une jolie partition + tabs avec doigtés correct ... Je demande certainement beaucoup, mais j'ai vu mon prof retranscrire certains en morceaux avec Guitar Pro en quelques petites minutes ...

Vous allez me dire "mais pourquoi ne lui demandes-tu pas ?" ... Déjà fait, mais il est déjà bien occupé car je suis loin d'être le seul à lui demander ce genre de choses ... Mon envie d'apprendre ce morceau est trop grande pour être patient :love:

 

J'ai trouvé une vidéo de Mr Mulvey détaillant une bonne partie du pattern, mais j'ai déjà essayé, je galère .. De plus j'ai besoin de me familiariser avec la lecture d'une partition/tabs ...

voici le lien :

 

Un très grand merci d'avance pour tous ceux qui plancheront sur le "sujet" :)

 

A très bientôt j'espère !

 

Lou

Lien à poster
Partager sur d’autres sites

Nick Mulvey - Ailsa Craig
capo 3rd fret
again this is just the melody in the bass played by the thumb, there is a constant quick picking
of the B and G-string
Intro/Verse
e|---------------------------------------------------------------------------|
B|---------h2p0------------------------h2p0----------------------------------|
G|--h5--5---------5---2-------h5--5------------5---2-------------------------|
D|---------------------------------------------------------------------------|
A|---------------------------------------------------------------------------|
E|---------------------------------------------------------------------------|
e|---------------------------------------------------------------------------|
B|---------------------------------------------------------------------------|
G|---------------------------------------------------------------------------|
D|---2--------2--------h2--------------------2-------------------------------|
A|------3--3----3-3-------------4-------4---------4--------------------------|
E|---------------------------------5-5----------------5----------------------|

Rest
e|---------------------------------------------------------------------------|
B|---------------------------------------------------------------------------|
G|---------------------------------------------------------------------------|
D|---------------0--------------------0h2------------------------------------|
A|---------0h2------------------0h2------------------------------------------|
E|-h5s2p0--------------h5s2p0------------------------------------------------|

 

source: ultimateGuitar.com

Lien à poster
Partager sur d’autres sites

Je n'ai pas du tout l'impression d'entendre cela car on entend bien les basses mais il y a un fond sur les aigues.

On dirait qu'il manque la moitié des notes sur cette tablature.

Modifié par Photoff
Lien à poster
Partager sur d’autres sites

La tab est fausse:

 

[--a-m-a-m-a-m-a-m-a-m-a-m-a  etc...------------------]
e|----0--0--0--0--0--0--0--0--0--0--0--0--------------|
B|--0--0--0--0--0--0--0--0--0--0--0--0----------------|
G|-------------------2--------------------------------|
D|--2-------5-----------------5-------2---------------|
A|----------------------------------------------------|
E|----------------------------------------------------|
[---P-------p--------p--------p-------p---------------]

 

Il suffit juste de noter les basses sur la vidéo :p

Lien à poster
Partager sur d’autres sites

Veuillez vous connecter pour commenter

Vous pourrez laisser un commentaire après vous êtes connecté.



Connectez-vous maintenant
×
×
  • Créer...