Aller au contenu

[Nightwish] The Islander


Messages recommandés

Salut !!!

 

Je suis à la recherche de la tablature de The islander de Nightwish. J'ai déjà fait des recherches mais je trouve à chaque fois beaucoup de tablatures différentes.

 

Par avance merci.

 

 

 

 

edit d'andu : sujet déplacé ;)

Lien à poster
Partager sur d’autres sites

Voila :

 


Intro and Main riff

c#||-------------------------------|--------------------------------||
G#||--10-10-10-10-10-----8--10-----|--------------10-10-8-6-8-------||
E ||--7--9--10-9--9h10p9-5--7--7---|--5--7-7------10-9--5-3-5-------||
B ||---------------------------7---|--3./5-5h6p5---------------3/5--||
F#||--------------------------(5)--|--------------------------------||
C#||-------------------------------|---------------------------1/3--||

Verse Example: Verses all the same (Dm Dsus2 Bb Bb Csus2 F C D5)


  Dm           Dsus2      Bb
An old man by a seashore at the end of days

Csus2      F           C               D5
Gazes the horizon with sea wind in his face

Dm             Dsus2   Bb
Tempest-tossed island, seasons all the same

Csus2       F             C              D5
Anchorage unpainted and a ship without a name


Chorus


D5             Bb   F   C   Dm   Bb           F          Csus2
  This is the long for-got-ten  light at the end of the world

D5    Bd F   C   Dm       Bd             F           Csus2  D5
  Ho-ri-zon cry-ing  the tears we left behind long ago


Chords

     Dm  Dsus2  Bb  Csus2 F  D5
c#||--5----5-----6---3-----1--5---||
G#||--6----5-----6---3-----1--3---||
E ||--7----7-----7---5-----2--2---||
B ||--7----7-----8---5-----3--0---||
F#||--5----5-----8---3-----3--0---||
C#||-------------6---------1------||

 

 

le plus juste je pense

Lien à poster
Partager sur d’autres sites

Veuillez vous connecter pour commenter

Vous pourrez laisser un commentaire après vous êtes connecté.



Connectez-vous maintenant
×
×
  • Créer...