Aller au contenu
dany

[Nirvana] Come as you are

Messages recommandés

je cherches cette tablature sur internet depuis hier, mais je ne la trouves pas ... elle n'est jamais entière... Donc si vous l'avez...faites moi signe ;):guitare::cache:

Partager ce message


Lien à poster
Partager sur d’autres sites

intro
e----------------------------------------------------------------------------
b----------------------------------------------------------------------------
g----------------------------------------------------------------------------
d----------------------------------------------------------------------------
a-------------0---0-------------2-------2----------------------------------- 
e--0--0--1--2---2----2--2--1--0---0--0-----0--1------------------------------ 

e----------------------------------------------------------------------------
b----------------------------------------------------------------------------
g----------------------------------------------------------------------------
d----------------------------------------------------------------------------
a----0----0----0------2---------2--------------------------------------------
e--2---2----2----1--0----0---0----0--1---------------------------------------

e----------------------------------------------------------------------------
b----------------------------------------------------------------------------
g----------------------------------------------------------------------------
d----------------------------------------------------------------------------
a----0---0-------------2--------2---------0-----0-------------2-------2------
e--2---2----2--2--1--0----0--0----0--1--2----2-----2--2--1--0----0--0---0--1-

verse
e----------------------------------------------------------------------------
b----------------------------------------------------------------------------
g---------------------------------------------------------------------------- 
d----------------------------------------------------------------------------
a----0----0--------------2--------2------------------------------------------
e--2----2----2--2--1--0----0--0-----0--1-------------------------------------

play that 7 times, then
e---------------------------------0--0---------------------------------------
b---------------------------------0--0---------------------------------------
g---------------------------------1--1---------------------------------------
d----------------------------------------------------------------------------
a-----0----0------------2----------------------------------------------------
e--2----2----2--2--1--0----0------------0--1---------------------------------

chorus
e----------------------------0--------------------0---0----------------------
b----------------------2-----2---2--2-------------0------0-----2-2--2--2-----
g-------------------2--2--2--2---2--2--------------------------2-2--2--2-----
d--4---4---4--4-----2--2--2---------0-------4--4---------------2-2--2--2-----
a--4---4---4--4--0--0-----0------------0----4--4-------------0------0--------
e--2---2---2--2--0---------------------0----2--2-----------------------------

e----------------------------------------------------------------------------
b--------------------2--2--2----2--2--2-------0--0-----0---------------------
g--------4--4--4-----2--2--2----2--2--2-------0--0---0---0---2--2--2--2--2---
d--------4--4--4-----2--2--2----2--2--2----4-----------------2--2--2--2--2---
a------------------0----0--0----0--0--0----4-----------------2--2--2--2--2---
e--2--2------------------------------------2-----------------0--0--0--0--0--- 

e----------------------------------------------------------------------------
b----------------------------------------------------------------------------
g----------------------------------------------------------------------------
d----------------------------------------------------------------------------
a----------------------------------------------------------------------------
e--0--0--1-------------------------------------------------------------------

bridge 
e---------------------0--0--0-0--0-0-----------------------------------------
b------------------0--3--3--3-3--3------------------------------------------- 
g--4--4--4--4-4-4--0--2--2-------2------------------------------------------- 
d--4--4--4--4-4-4--0--0--0-------0-------------------------------------------
a--2--2--2--2-2-2--0---------------------------------------------------------
e----------------------------------------------------------------------------

play that 3 times, then
e---------------------0--0--0--0--------------------------------------------- 
b------------------0--3--3--3--3---------------------------------------------
g--4--4--4--4-4-4--0--2--2-----2--------------------------------------------- 
d--4--4--4--4-4-4--0--0--0-----0--------------------------------------------- 
a--2--2--2--2-2-2--0---------------------------------------------------------
e----------------------------------0--0--1-----------------------------------

guitar 1
e----------------------------------------------------------------------------
b-------------------------------------------------------------0----x--x--x---
g-------------------------------------------------------------2----6--6--6---
d------------------------------2-----0------0---0--0-------------------------
a----0----0------------2--2-----------------------------2--------------------
e--2----2---2--2--1--0------0-----0----1--2-----------0----0-----------------

solo
e----------------------------------------------------------------------------
b------0--0--0--0----------0----0--0----------0----0--0--------0-----------0-
g--6---9--9-11-116--6--6--9---11-116--6--6--9---11-11/13-13-11-11--9--9--0- 
d----------------------------------------------------------------------------
a----------------------------------------------------------------------------
e----------------------------------------------------------------------------

e----------------------------------------------------------------------------
b--0-----0---0--0-0--------0---0--0----0-----0---0--0-----0-----0-------0--0-
g--6--6--9--11-116--6--6--9--11-116--6--6--9--11-11/13-13-13-11-11-9--9--6-
d----------------------------------------------------------------------------
a----------------------------------------------------------------------------
e----------------------------------------------------------------------------

e----------------------------------------------------------------------------
b---0-----0---0----0--------0---0----0--------0------0-------0------0--0----0
g---6--6--9--11-116--6--6--9--11-116--6--6--9--9--11-11/13---13--11--9--9--
d----------------------------------------------------------------------------
a----------------------------------------------------------------------------
e----------------------------------------------------------------------------

e----------------------------------------------------------------------------
b---0-----0---0--------------0---0--0----------0---0--0-----------0--0--0----
g---6--6--9--11--116--6--6--9--11-116--6--6--9--11-11/13-13-13-11--0--0----
d---------------------------------------------------------------------------- 
a----------------------------------------------------------------------------
e----------------------------------------------------------------------------

outro (guitar 1)
e----------------------------------------------------------------------------
b----------------------------------------------------------------------------
g----------------------------------------------------------------------------
d--------0---0-----------------2---------0--------------------------2---0----
a----0--------------2-------------------------0-------------2----------------
e--2---2---2---1--0---0--0--0----0--1--2----2---2--2--1--0----0--0----0----1-

e----------------------------------------------------------------------------
b----------------------------------------------------------------------------
g---------------------------------------------------------------------------- 
d----------0---0-----------------2----------------0-----------------2----2--- 
a-----0----------------2--------------------0---0------------2-----------2--- 
e--2-----2---2---1--0----0--0--0---0--1--2----2------2--1--0---0--0---0--0--1 

end
e--0-------------------------------------------------------------------------
b--0-------------------------------------------------------------------------
g--x-------------------------------------------------------------------------
d--4-------------------------------------------------------------------------
a--4-------------------------------------------------------------------------
e--2-------------------------------------------------------------------------

 

si ça ne te convient pas, dis le ;)


() ()

 

(>'.')LAAAaaaaapIIIiiiiiiNNNN !

 

(")_(")

 

*******

Partager ce message


Lien à poster
Partager sur d’autres sites
Invité Roockie

... et en la regardant de plus près (et en la jouant surtout) on dirait bien qu'il y a une ch'tite erreur... il me semble que sur la première portée le dernier "0" sur la corde de LA ne devrait pas être là... mais plutôt sur la corde de MI grave... non ?? ou c'est moi qui me gourre peut-être (ce que ne serait pas trop étonnant ceci-dit) !!

Partager ce message


Lien à poster
Partager sur d’autres sites

non je pense que tu as raison.


Ceci n'est pas ma signature, je le réécris à chaque post

Partager ce message


Lien à poster
Partager sur d’autres sites

Merci babzoo grace à toi je joue mon premier, morceaux et en plus c'est Nirvana!!!!!

:)

Partager ce message


Lien à poster
Partager sur d’autres sites

Veuillez vous connecter pour commenter

Vous pourrez laisser un commentaire après vous êtes connecté.



Connectez-vous maintenant

×
×
  • Créer...