Aller au contenu

[Nirvana] Oh me


Messages recommandés

                                    Oh Me                                       


guitare 1 (Kurt)

D#||-----------------------|-------0-----------------|
A#||-----------------------|-------0-----------------|
F#||-----------------------|-------1-----------------|
C#||-----------------------|-------2-----------------|
G#||--------------------7/-|-------2-------------7/5-|
D#||------------4-5/7-7----|--0----0------4-5/7------|



--------0--0-0---0------------|-------0---3------------------|
--------3--3-3-x-3------------|--x----3-x-0------------------|
--------0--0-0-0-x------------|--0----0-0-x---x----0-x-x-x-0-|
--------4--4-4-4----------x-x-|--4--x-x-4-----2--x-x-2/4-----|
--5--5-------------x-x----7/5-|--5--5---------3--3---3/5-----|
-------------------4-5/7------|------------------------------|



--------0----------------|-------0-----------------|
--------0----------------|-------0-----------------|
--------1----------------|-------1-----------------|
--------2----------------|-------2-----------------|
--------2-------------7/-|-------2-------------7/5-|
--0--0--0------4-5/7-----|--0----0------4-5/7------|



--------0--0-0---0------------|-------0---3------------------|
--------3--3-3-x-3------------|--x----3-x-0------------------|
--------0--0-0-0-x------------|--0----0-0-x---x----0-x-x-x-0-|
--------4--4-4-4----------x-x-|--4--x-x-4-----2--x-x-2/4-----|
--5--5-------------x-x----7/5-|--5--5---------3--3---3/5-----|
-------------------4-5/7------|------------------------------|



--------0----------------|-------0-----------------|
--------0----------------|-------0-----------------|
--------1----------------|-------1-----------------|
--------2----------------|-------2-----------------|
--------2-------------7/-|-------2-------------7/5-|
--0--0--0------4-5/7-----|--0----0------4-5/7------|



--------0--0-0---0------------|-------0---3------------------|
--------3--3-3-x-3------------|--x----3-x-0------------------|
--------0--0-0-0-x------------|--0----0-0-x---x----0-x-x-x-0-|
--------4--4-4-4----------x-x-|--4--x-x-4-----2--x-x-2/4-----|
--5--5-------------x-x----7/5-|--5--5---------3--3---3/5-----|
-------------------4-5/7------|------------------------------|



--------0----------------|-------0-----------------|-------------------------|
--------0----------------|-------0-----------------|-------------------------|
--------1----------------|-------1-----------------|-------------------------|
--------2----------------|-------2-----------------|--5-----5--5-5-5--5------|
--------2-------------7/-|-------2-------------7/5-|--3--3--3--3-3-3--3------|
--0--0--0------4-5/7-----|--0----0------4-5/7------|-------------------------|



-----------------------|-------------------------|--------------------10------|
-----------------------|-------------------------|----------------------------|
-----------------------|-------------9-----12----|--9----9---9-9--9-x-12--12--|
--5--5------7--7----7--|--9----9---9-9-----12----|--9----9---9-9--9-x-12--12--|
--3--3------5--5----5--|--7----7---7-7-----10----|--7----7---7-7--7-x-10--10--|
-----------------------|--0-------------0--------|--0-------------------------|



---------------------------|-------------------3-3-3---|
---------------------------|-------9--9-9-9----3-3-3-0-|
--9----9---9-9-----12--12--|--9----9--9-9-9----4-4-4---|
--9----9---9-9-----12--12--|--9----9--9-9-9----5-5-5---|
--7----7---7-7-----10--10--|--7----7------7----5-5-5---|
--0-------------0----------|--0----------------3-3-3---|



----------------------------|--------x-----------x-----|
----------------------------|--------x-----------x-----|
--9---9-9-9--9-9------------|--------x-----------x-----|
--9---9-9-9--9-9------------|--5--5-----5--7--7-----7--|
--7-----7-7--7-7---------7--|--3--3-----3--5--5-----5--|
--0-----0---------4-5/7-----|--------------------------|



---------------------------|-----------------------|
---------------------------|-----------------------|
---------------------------|---------------7--9----|
--9--9-9-9-9---------------|-------7--9------------|
--7--7-7-7-7------------7--|--9--------------------|
--0--------------4-5/7-----|-----------------------|



----------------------------|-----------------------------------|
--8p7--7--------------7-7h8-|--10----8--7-----7-----------------|
----------9---9-----9-------|--------------7-----9p7--7-7h9-----|
----------------------------|-----------------------------------|
----------------------------|-------------------------------7h9-|
----------------------------|-----------------------------------|



----------------------------|-------0-----------------|
----------------------------|-------0-----------------|
------7--7h9---9/-----------|-------1-----------------|
--7h9-----------------------|-------2-----------------|
-------------------------7/-|-------2-------------7/5-|
------------------4-5/7-----|--0----0------4-5/7------|



--------0--0-0---0------------|-------0---3------------------|
--------3--3-3-x-3------------|--x----3-x-0------------------|
--------0--0-0-0-x------------|--0----0-0-x---x----0-x-x-x-0-|
--------4--4-4-4----------x-x-|--4--x-x-4-----2--x-x-2/4-----|
--5--5-------------x-x----7/5-|--5--5---------3--3---3/5-----|
-------------------4-5/7------|------------------------------|



--------0----------------|-------0-----------------|
--------0----------------|-------0-----------------|
--------1----------------|-------1-----------------|
--------2----------------|-------2-----------------|
--------2-------------7/-|-------2-------------7/5-|
--0--0--0------4-5/7-----|--0----0------4-5/7------|



--------0--0-0---0------------|-------0---3------------------|
--------3--3-3-x-3------------|--x----3-x-0------------------|
--------0--0-0-0-x------------|--0----0-0-x---x----0-x-x-x-0-|
--------4--4-4-4----------x-x-|--4--x-x-4-----2--x-x-2/4-----|
--5--5-------------x-x----7/5-|--5--5---------3--3---3/5-----|
-------------------4-5/7------|------------------------------|



--------0----------------|-------0-----------------|-------------------------|
--------0----------------|-------0-----------------|-------------------------|
--------1----------------|-------1-----------------|-------------------------|
--------2----------------|-------2-----------------|--5-----5--5-5-5--5------|
--------2-------------7/-|-------2-------------7/5-|--3--3--3--3-3-3--3------|
--0--0--0------4-5/7-----|--0----0------4-5/7------|-------------------------|



-----------------------|-------------------------|--------------------10------|
-----------------------|-------------------------|----------------------------|
-----------------------|-------------9-----12----|--9----9---9-9--9-x-12--12--|
--5--5------7--7----7--|--9----9---9-9-----12----|--9----9---9-9--9-x-12--12--|
--3--3------5--5----5--|--7----7---7-7-----10----|--7----7---7-7--7-x-10--10--|
-----------------------|--0-------------0--------|--0-------------------------|



---------------------------|-------------------3-3-3---|
---------------------------|-------9--9-9-9----3-3-3-0-|
--9----9---9-9-----12--12--|--9----9--9-9-9----4-4-4---|
--9----9---9-9-----12--12--|--9----9--9-9-9----5-5-5---|
--7----7---7-7-----10--10--|--7----7------7----5-5-5---|
--0-------------0----------|--0----------------3-3-3---|



----------------------------|--------x-----------x-----|-----------------------|
----------------------------|--------x-----------x-----|-------------9---------|
--9---9-9-9--9-9------------|--------x-----------x-----|-------------9---------|
--9---9-9-9--9-9------------|--5--5-----5--7--7-----7--|--9----9-----9----9----|
--7-----7-7--7-7---------7--|--3--3-----3--5--5-----5--|--7----7---7------7----|
--0-----0---------4-5/7-----|--------------------------|--0--------------------|



-----------------------------------|---------------------------|
----------------------x---x-x------|---------------------------|
-----x------------x-x-7---7-7/9-x--|--7/9----------------------|
--x--0---x--x-----7-7-7-x-7-7/9-x--|--7/9-9-9-9----9-9--9------|
--10---x-10-10--x---5---5---5------|--5/7-7-7-7----7-7--7---x--|
--8----8----8---x---5---5---5------|---------------------------|



--------------------------------|----------7----7-----------|
--------------------------------|----------7----7-7--7-7/---|
--5-5-5-5-5--x-x-5/7-7-7-7--x-x-|--7/9-9-9-9------9--9-9/---|
--5-5-5-5-5--x-x-5/7-7-7-7--x-x-|--7/7-9-9------------------|
--3-3-3-3-3--x-x-3/5-5-5-5--x-x-|--5/7-7-7------------------|
--------------------------------|---------------------------|



--3-3-3-3-3---------------------|----------7----------------|
--3-3-3-3-3---------------------|------7-7-7----7-7--7-7/---|
--5-5-5-5-5--x-5-5/7-7-7-7--x-7-|--7/9-9-9-9----9-9--9-9/---|
--5-5-5-5-5--x-5-5/7-7-7-7--x-7-|--7/9-9-9-9-----------9/---|
--3-3-3-3-3--x-3-3/5-5-5-5--x-5-|--5/7-7-7-7-----------7/---|
--------------------------------|---------------------------|



--3--------------5---------------|--7----7---------------7------|
----3--------------5-------------|--7------7-----------7---7----|
------5------5/7-----7-------7/9-|--9--------9-------9-------9/-|
-----------5-----------7---7-----|--9----------9---9------------|
---------3---------------5-------|--7------------7--------------|
---------------------------------|--0---------------------------|



--3-----------------------5------|--0----------------||
----3-------------------5---5----|--0----------------||
------5-------5/7-----7-------7--|--1----------------||
--------5---5-------7------------|--2----------------||
----------3-------5--------------|--2----------------||
---------------------------------|--0----------------||

 

from site: Tablatures.tk - 5.0

Lien à poster
Partager sur d’autres sites

ok ben en fait en cherchant j'en ai trouvé une autre donc, je la met quand meme, meme si c'est casi les deux memes xD

 

 

Oh Me (unplugged)
Tuned down 1/2 a step
intro
Guitar 2         E             D
e----------------0-----------------------0---0--0------0--------------------|
b----------------0-----------------------3---3--3------3--------------------|
g----------------1-----------------------0---0--0--0------------------------|
d----------------2-----------------------4---4--4--4------------------------|
a---------7-----2----------75---5--5----------------------------75-------|
e--4--5/7-----0--0---4--5/7-------------------------------4--5/7------------|
                  C            D                    E
e--------0------0------------------------------------0----------------------|
b--------3------3-------------------x----------------0----------------------|
g--0-----0---0------------0---------x--(0)-----------1----------------------|
d--4---------4------2---------2/4--------------------2----------------------|
a--5--5-------------3---3-----3/5--------------------2----------------------|
e--------------------------------------------0---0---0----------------------|
play that 2 more times for the verse, then
Guitar 2         E                  C                          D
e-----------------0---------------------------------------------------------|
b-----------------0---------------------------------------------------------|
g-----------------1---------------------------------------------------------|
d-----------------2------------------5--5--5--5-5-5--5---5--5---7---7-----7-|
a----------7-----2------------75---3--3--3--3-3-3--3---3--3---5---5-----5-|
e--4--5/7------0--0----4--5/------------------------------------------------|
  E                 G     E                     G       E
e---------------------------------------------------------------------------|
b--------------------------------------------------------9---9---9--9-------|
g------------9-------12-----9---9---9--9---9--x--12--12--9---9---9--9--9----|
d--9---9--9--9-------12-----9---9---9--9---9--x--12--12--9---9---9--9--9----|
a--7---7--7--7-------10-----7---7---7--7---7--x--10--10--7---7---------7----|
e--0---------------0--------0----------------------------0------------------|
  G          E                              C              D
e--3---3--3-------------------------------------------x------------x---------|
b--3---3--3-------------------------------------------x------------x---------|
g--4---4--4---9---9--9--9---9--9----------------------x------------x---------|
d--5---5--5---9---9--9--9---9--9--------------5---5-------5--7--7------------|
a--5---5--5---7------7--7---7--7----------7---3---3-------3--5--5-----5------|
e--3---3--3---0------0-------------4--5/7------------------------------------|
    E
e---------------------------------------------------------------------------|
b---------------------------------------------------------------------------|
g---------------------------------------------------------------------------|
d--9---9--9--9--9-----------------------------------------------------------|
a--7---7--7--7--7------------7----------------------------------------------|
e--0----------------4---5/7-------------------------------------------------|
solo   C    E             G D                                        C
e---------------------------------------------------------------------------|
b-----------------------8^7--7-------------7--7^8--10--8--7---7-------------|
g---------------7--7^9---------9---9-----9-----------------7----9^7--7--7^9-|
d-------7--7^9--------------------------------------------------------------|
a--7^9----------------------------------------------------------------------|
e---------------------------------------------------------------------------|
  D      E
e---------------------------------------------------------------------------|
b---------------------------------------------------------------------------|
g-------------7--7^9--(9)--------------------------------------------------|
d--------7^9----------------------------------------------------------------|
a--7^9------------------------------------7--------------------------------|
e---------------------------------4--5/7------------------------------------|
then play the verse and chorus and then
   C                      D                       E
e---------------------------------------------------------------------------|
b---------------------------------------------------------------------------|
g-----------------------------7------7--7/9--x------------------------------|
d------0----------------7--7--7------7--7/9--x---7/9------------------------|
a--10---------10--10--x----5------5-----5--------7/9--9--9-9---9-9--9-------|
e---8-----8--------8--x----5------5-----5--------5/7--7--7-7---7-7--7--x----|
  PM-----------------------------------------------------------------------|
                       outro   C                       D                    E
e--------------------------------------------------------7---7--------------|
b--------------------------------------------------------7---7--7---7--7---|
g--5--5--5--5--5---x--x--5/7--7--7--7---x--x--7/9--9--9--9------9---9--9---|
d--5--5--5--5--5---x--x--5/7--7--7--7---x--x--7/9--9--9---------------------|
a--3--3--3--3--3---x--x--3/5--5--5--5---x--x--5/7--7--7---------------------|
e---------------------------------------------------------------------------|
  C                       D                    E
e--3--3--3--3--3------------------------------------------7-----------------|
b--3--3--3--3--3-----------------------------------7--7---7----7--7---7--7-|
g--5--5--5--5--5---x--5--5/7--7--7--7---x--7--7/9--9--9---9----9--9---9--9-|
d--5--5--5--5--5---x--5--5/7--7--7--7---x--7--7/9--9--9---9--------------9-|
a--3--3--3--3--3---x--3--3/5--5--5--5---x--5--5/7--7--7---7--------------7-|
e---------------------------------------------------------------------------|
  C                   D                     E
e--3-------------------5---------------------7----7------------------7-------|
b----3-------------------5-------------------7-------7-------------7---7-----|
g------5---------5/7--------7----------79---9---------9---------9--------9-|
d-------------5---------------7-----7--------9-----------9-----9-------------|
a----------3---------------------5-----------7--------------7----------------|
e--------------------------------------------0-------------------------------|
  C                   D
e--3------------------------------------5-----------------------------------|
b-----3-------------------------------5---5---------------------------------|
g--------5-----------5/7-----------7---------7------------------------------|
d-----------5-----5-------------7-------------------------------------------|
a--------------3-------------5----------------------------------------------|
e---------------------------------------------------------------------------|
end   E
e--0-------------------------------------------------------------------------|
b--0-------------------------------------------------------------------------|
g--1-------------------------------------------------------------------------|
d--2-------------------------------------------------------------------------|
a--2-------------------------------------------------------------------------|
e--0-------------------------------------------------------------------------|

 

http://www.ultimate-guitar.com/tabs/n/nirvana/oh_me_ver2_tab.htm

Lien à poster
Partager sur d’autres sites

Veuillez vous connecter pour commenter

Vous pourrez laisser un commentaire après vous êtes connecté.



Connectez-vous maintenant
×
×
  • Créer...