Aller au contenu

[Nirvana] Rape me


Messages recommandés

un classique!!

en espérant que ca puisse t'aider:

 

|----------------------------
|---------------------------------
|---------5-5-5-x-x---------------
|-7-7-x-x-5-5-5-x-x-2-2-x-x-x-5-5-
|-7-7-x-x-3-3-3-x-x-2-2-x-x-x-5-5-
|-5-5-x-x-----------0-0-x-x-x-3-3-   x2

|--------------------------------
|--------------------------------
|----------5---------------------
|---7----5-5----2----5-----------
|-7-5---3--3--2-2--5-5-----------
|5--5-0------0--0-3--3----------- x4

Play main riff again and then repeat

Bridge:
|------------------------------------------------
|------------------------------------------------
|-6--6-6-6--6-6-6--6--6-----2--2-----------------
|-6--6-6-6--6-6-6--6--6-----2--2-----------------
|-4--4---4------4--4--4-----0--0-----------------
|------------------------0--------0--3--2--1--0--
then play this outro

|------------------------------------------------0--
|------------------------------------------------0--
|---------------------------------------------------
|-3--3--3-3-3-3-3-3/5--5--5--5-5-5-5-5-/---2--------
|-3--3--3-3-3-3-3-3/5--5--5--5-5-5-5-5//---2--------
|-1--1--1-1-1-1-1-1/3--3--3--3-3-3-3-3/----0--------

 

il y a tellement de versions, l'embarras du choix quoi...

Lien à poster
Partager sur d’autres sites

Veuillez vous connecter pour commenter

Vous pourrez laisser un commentaire après vous êtes connecté.



Connectez-vous maintenant
×
×
  • Créer...