Aller au contenu

[Nirvana] The man who sold the world


Messages recommandés

Un bonsoir serait de mise

 

NIRVANA - THE MAN WHO SOLD THE WORLD (MTV Unplugged Acoustic Version)
                                     Tabbed by Billy Bob 
Tune down 1/2 step (Eb to eb)


       A       Dm      F      C       Fm 
eb -----x-------1-------1--------------1-------
Bb -----2-------3-------1------1-------3-------
Gb -----2-------2-------2------0-------3-------     CHORD CHART 
Db -----2-------0-------3------2-------1-------
Ab -----0---------------3------3-------1-------
Eb ---------------------1--------------1-------

Intro:
eb -----------------------                           eb----
Bb -----------------------                           Bb----
Gb --2-2-2-0-2h3p2-0------   repeat X6 (at end...add Gb-2~~(let ring)
Db -----------------------                           Db---- 
Ab -----------------------                           Ab---- 
Eb -----------------------                           Eb---- 

Verse 1:
                   A
We passed upon the stairs,
                    Dm
And spoke in was and when
                 A
Although I wasn't there
                 F
He said I was his friend
                   C
Which came as a surprise,
                A                           Dm
I spoke into his eyes ... I thought you died alone
                   C
A long long time ago

Chorus:
      C                  C                    Fm           C
  Oh no...            Not me...            We never lost control...

eb---------------------------------------  
Bb---------------------------------------
Gb---------------------------------------
Db---------------------------------------
Ab---------0-1-2-3-------------0-1-2-3---
Eb-0-1-2-3-------------0-1-2-3-----------

         C             C                  Fm               A 
  You're face...    To face..    With the man who sold the world...

Intro:
eb -----------------------                           eb----
Bb -----------------------                           Bb----
Gb --2-2-2-0-2h3p2-0------   repeat X6 (at end...add Gb-2~~(let ring)
Db -----------------------                           Db---- 
Ab -----------------------                           Ab---- 
Eb -----------------------                           Eb---- 

Verse 2:
                       A
I laughed and shook his hand,
                    Dm
And made my way back home,
                        A
I searched far for the land,
                     F
For years and years I roamed,
                 C
I gazed a gazer's stare
                  A                         Dm
I walked a million years ... I must have died alone,
                   C
A long long time ago.

Chorus:
      C                  C                    Fm           C
  Who knows...            Not me...           I never lost control...

eb---------------------------------------  
Bb---------------------------------------
Gb---------------------------------------
Db---------------------------------------
Ab---------0-1-2-3-------------0-1-2-3---
Eb-0-1-2-3-------------0-1-2-3-----------

         C             C                  Fm               A 
  You're face...    To face..    With the man who sold the world...

Intro:
eb -----------------------                           eb----
Bb -----------------------                           Bb----
Gb --2-2-2-0-2h3p2-0------   repeat X6 (at end...add Gb-2~~(let ring)
Db -----------------------                           Db---- 
Ab -----------------------                           Ab---- 
Eb -----------------------                           Eb---- 

Chorus: 

      C                  C                    Fm           C
 Who knows...            Not me...            We never lost control...

eb---------------------------------------  
Bb---------------------------------------
Gb---------------------------------------
Db---------------------------------------
Ab---------0-1-2-3-------------0-1-2-3---
Eb-0-1-2-3-------------0-1-2-3-----------

         C             C                  Fm               A 
  You're face...    To face..    With the man who sold the world...

Intro:
eb -----------------------
Bb -----------------------
Gb --2-2-2-0-2h3p2-0------   repeat X8
Db -----------------------
Ab -----------------------
Eb -----------------------

Solo/Outro:

eb------------------------------------------------------
Bb------------------------------------------------------
Gb-2/9-9-9-9--9-9--9-9-9-9--9-9-2-2-2-0-2h3p2-0--------
Db------------------------------------------------------
Ab------------------------------------------------------
Eb------------------------------------------------------

eb------------------------------------------------------------------------------
Bb------------------------------------------------------------------------------
Gb--2-2-2-0-2h3p2-3/10-10-10-10--10-10--10-10-10-10--10-109-9-9-7-7-7---------
Db------------------------------------------------------------------------------
Ab------------------------------------------------------------------------------
Eb------------------------------------------------------------------------------

eb-------------------------------------------------------------------------------------------
Bb-------------------------------------------------------------------------------------------
Gb-7-7-7-7--7-7/9-9-9-9--9-9--9-9-9-9--9-92-2-2-0-2h3p2-0-2-2-2-0-2h3p2-3/10-10-10-10--10-10
Db-------------------------------------------------------------------------------------------
Ab-------------------------------------------------------------------------------------------
Eb-------------------------------------------------------------------------------------------

eb------------------------------------------------------------------------------------------
Bb------------------------------------------------------------------------------------------
Gb-10-10-10-10--10-109-9-97-7-7--7-7-7-7--7-7/9-9-9-9--9-9--9-9-9-9--9-92-2-2-0-2h3p2-0--
Db------------------------------------------------------------------------------------------
Ab------------------------------------------------------------------------------------------
Eb------------------------------------------------------------------------------------------

eb--------------------
Bb--------------------
Gb-2-2-2-0-2h3p2-0-2~~(let ring)(END)
Db--------------------
Ab--------------------
Eb--------------------

Lien à poster
Partager sur d’autres sites
merci :D)

sinon il'y aurait pas une autre version ?? le Dm j'aime pas trop

 

justement c'est l'occasion d'apprendre à le jouer ;)

sérieusement si c'est la seule difficulté de la chansons profite en pour progresser c'est l'idéal! en plus le Dm c'est un accord commun donc dans tous les cas tu ne pourra pas y échapper longtemps...

Lien à poster
Partager sur d’autres sites
  • 8 months later...

  - 33555x
C# - 44555x 
A  - 00222x
D  - xx023x
F  - 133211

Intro (with mild distortion)

E --------------------------
B --------------------------
G --2-2-2-0--2/32-0--------
D --------------------------
A --------------------------
E --------------------------

{ Play Intro 6x }

                   A
We passed upon the stairs,
                 D
Spoken walls and wells,
                 A
Although I was a friend
               F
Sat on walls astrand,
                   C
Which came as so surprised,
                A                           D
I spoke into his eyes -- I thought you died alone
                   C
A long long time ago

(First chorus)

Oh no, not me,
  C#                C
We never lost control,

The face, to face,
        C#
With the man who sold the world.

{ Play intro 6x }

                       A
I laughed and shook his hand,
                 D
Made my way back home,
                        A
I searched from farther land,
                     F
Years and years I roamed,
                     C
I gazed all gazers there,
                    A                         D
We walked a million hills -- I must have died alone,
                   C
A long long time ago.

(Second chorus)

Who knows, not me,
 C#                C
I never lost control,

Your face, to face,
        C#
With the man who sold the world.

{ Play intro 6x }

Repeat second chorus.

{ Play intro 8x }

Outro:

E -------------------------------------------------------
B -------------------------------------------------------
G -/9-9-9-9-9-9--2-2-2-0--2/32-0--2-2-2-0--2/32-0-----
D -------------------------------------------------------
A -------------------------------------------------------
E -------------------------------------------------------

E -------------------------------------------------------
B -------------------------------------------------------
G -/10-10-10-10-10-10-9-7-7-7-7-7-7-/9 2-2-2-0 2/32-0
D -------------------------------------------------------
A -------------------------------------------------------
E -------------------------------------------------------

E -------------------------------------------------------
B -------------------------------------------------------
G -/10-10-10-10-10-10-9-7-7-7-7-7-7-/9 2-2-2-0 2/32-0
D -------------------------------------------------------
A -------------------------------------------------------
E -------------------------------------------------------
From: LionGirl@aol.com
Date: Tue, 12 Dec 1995 15:42:55 -0500
Subject: TAB: "The Man Who Sold the World" - Nirvana

THE MAN WHO SOLD THE WORLD - Nirvana (written by David Bowie)

Tune down 1/2 step

Intro:   (X4)
------------------------
------------------------
--2-2-2-0---2-3-2--0-
------------------------
------------------------
------------------------

with intro:
F//

Dm
----
----
-2-
----
----
----

Verse 1:
   A
We passed upon the stair
   Dm
Spoke of was and when
   A
Although I wasn't there
   F
He said I was his friend
   C
Which came as a supprise
  A      Dm
I spoke into his eyes I thought you died alone
  C
A long long time ago






Chorus 1:

(C)
--------------------------------
--------------------------------
-------------------2--3--5-----
---------2--3--5---------------
---3--5------------------------

    Oh no
--------------------------------
--------------------------------
--------------------------------
-------------------0--2--3-----
---------0--1--3---------------
---1--3------------------------

   F
  Not me
--------------------------------
--------------------------------
-------------------2--3--5-----
---------2--3--5---------------
---3--5------------------------

    We
--------------------------------
--------------------------------
--------------------------------
-------------------0--2--3-----
---------0--1--3---------------
---1--3------------------------

Db
never lost control
--------------------------------
--------------------------------
--------------------------------
-------------3-----------------
--4------4--------4--4--------
--------------------------------




F
   You're face
--------------------------------
--------------------------------
--------------------------------
-------------------0--2--3-----
---------0--1--3---------------
---1--3------------------------

C
   to face
--------------------------------
--------------------------------
-------------------2--3--5-----
---------2--3--5---------------
---3--5------------------------

F        Db
   with the man who sold the world
--------------------------------
--------------------------------
--------------------------------
-------------------0--2--3-----
---------0--1--3---------------
---1--3------------------------

With intro:
A//Dm//

Verse 2:  (same chords as 1)

I laughed and shook his hand
And made my way back home
I serched for form and land
For years and years I roamed
I gazed a gazely stare
(At all the millions here) I must have died alone
A long long time ago







Chorus 2:  (same chords as 1)

Who knows
Not me
I never lost control
You're face to face
With the man who sold the world

With intro:
A//Dm//

(Repeat chorus 2)

With intro:
A//Dm//F//Dm

Dm
-----------------------
-----------------------
--2--2--2--0----2--2/
-----------------------
-----------------------
-----------------------

A
--------------------------------
--------------------------------
-/8----9--10----(10)9----9--
--------------------------------
--------------------------------
--------------------------------

----------------------
----------------------
--9----9------9----9
----------------------
----------------------
----------------------







Dm
---------------------------------
---------------------------------
--2----2--0------2--3--3----0--
---------------------------------
---------------------------------
---------------------------------

---------------------------------
---------------------------------
--2---2---2---0------2---2---2/
---------------------------------
---------------------------------
---------------------------------

F
---------------------------------
---------------------------------
/10----10--10------10---------
---------------------------------
---------------------------------
---------------------------------

---------------------------------
---------------------------------
--10--10--10------10--109---
---------------------------------
---------------------------------
---------------------------------

Dm
---------------------------------
---------------------------------
--9--(9)7--7--------7---------
---------------------------------
---------------------------------
---------------------------------

---------------------------------
---------------------------------
--7----7--7------7--7----------
---------------------------------
---------------------------------
---------------------------------

A
---------------------------------
---------------------------------
--7/9--9--9----9--9--9--------
---------------------------------
---------------------------------
---------------------------------

---------------------------------
---------------------------------
--9--9--9--9-----------------9
---------------------------------
---------------------------------
---------------------------------

Dm
---------------------------------
---------------------------------
--2--2--2--0------2--3--3----0-
---------------------------------
---------------------------------
---------------------------------

---------------------------------
---------------------------------
--2---2---2---0------2---2---2/
---------------------------------
---------------------------------
---------------------------------

F
---------------------------------
---------------------------------
-/10----10--10----10--10--10-
---------------------------------
---------------------------------
---------------------------------

---------------------------------
---------------------------------
--10----10--10----10--109---
---------------------------------
---------------------------------
---------------------------------

Dm
---------------------------------
---------------------------------
--9--(9)7--7------7--7--7-----
---------------------------------
---------------------------------
---------------------------------

--------------------------
--------------------------
--7----7--7------7--7/8/
--------------------------
--------------------------
--------------------------

A
---------------------------------
---------------------------------
/9------9--9------9--9--9------
---------------------------------
---------------------------------
---------------------------------

---------------------------------
---------------------------------
--9--9--9--9--------9--9------
---------------------------------
---------------------------------
---------------------------------

Dm
-----------------------------------
-----------------------------------
--2--2--2--0------2--3--3----0--
-----------------------------------
-----------------------------------
-----------------------------------

-----------------------------------
-------------------------------0--
--2--2--2--0------2--3--3----0--
-----------------------------------
-----------------------------------
-----------------------------------

F
-----------------------------------
-----------------------------------
--2--------------------------------
-----------------------------------
-----------------------------------
-----------------------------------

-----------------------------------
-----------------------------------
--(2)------------------------------
-----------------------------------
-----------------------------------
-----------------------------------

 

J'ai trouvé ça qui semble complet et qui sonne plutot bien, ça te conviens mieux?

Lien à poster
Partager sur d’autres sites

Veuillez vous connecter pour commenter

Vous pourrez laisser un commentaire après vous êtes connecté.



Connectez-vous maintenant
×
×
  • Créer...