Aller au contenu

[Paolo Nutini] Jenny don't be hasty


Messages recommandés

-------------------------------------------------------------------------------
		     Jenny Don't Be Hasty - Paolo Nutini
-------------------------------------------------------------------------------
Tabbed by: Chris Nizzle

Tuning: Standard

Sorry, this is the right version, in the chorus you should play A follwed by B, not A 
G. This is the right version!

Intro

e|-------------|
B|-------------|
G|-------------|
D|-444444444---|
A|-444444444---|
E|-222222222---|
  Strummed quickly about 20 times

Intro/Verse 1

e|----------------7-------------------------|
B|----6-7-6-4-----7--4--4-6-4---------------|
G|----6-7-6-4--------4--4-6-4---------------|   x4
D|-4--6-7-6-4--44----4--4-6-4-4-------------|
A|-4--4-5-4-2--22----2--2-4-2-4------0------|
E|-2--------------------------2--0-2---2-0--|
                               [the bass plays this bit
                                but u can play it if
                                u want]

1st Chorus

e|-5--55--55-55-7-2-22-------|
B|-5--55--55-55-7-2-22-77-77-|
G|-6--66--66-66-8-2-22-77-77-|     x2
D|-7--77--77-77-9-4-44-77-77-|
A|-7--77--77-77-9-4-44-55-55-|
E|-5--55--55-55-7-2-22-------|

2nd Verse

e|----------------7-------------------------|
B|----6-7-6-4-----7--4--4-6-4---------------|
G|----6-7-6-4--------4--4-6-4---------------|     x5
D|-4--6-7-6-4--44----4--4-6-4-4-------------|
A|-4--4-5-4-2--22----2--2-4-2-4------0------|
E|-2--------------------------2--0-2---2-0--|
                               [the bass plays this bit
                                but u can play it if
                                u want]

2nd Chorus

e|-5--55--55-55-7-2-22-------|
B|-5--55--55-55-7-2-22-77-77-|
G|-6--66--66-66-8-2-22-77-77-|        x3
D|-7--77--77-77-9-4-44-77-77-|
A|-7--77--77-77-9-4-44-55-55-|
E|-5--55--55-55-7-2-22-------|

then

e|-5--55--------------------------|
B|-5--55----------44-44-77-77--9--|
G|-6--66----------44-44-77-77--9--|
D|-7--77--2-22-22-44-44-77-77--9--|
A|-7--77--2-22-22-22-22-55-55--7--|
E|-5--55--0-00-00-----------------|
                              Let the E ring

Solo

e|---------------------------------------------------------------------------|
B|----5--------------------5---------------------5----5-----------------5----|
G|-b4---b4----b4r-2---2-b4---b4~----b4r-2---2-b4---b4------b4r-2---2-b4----b4|
D|------------------4---------------------4----------------------4-----------|
A|---------------------------------------------------------------------------|
E|---------------------------------------------------------------------------|

e|-----------------|
B|-----------------|
G|-b4b4b4b4b4b4b4--|
D|-----------------|
A|-----------------|
E|-----------------|

3rd Chorus

e|-5--55--55-55-7-2-22-------|
B|-5--55--55-55-7-2-22-77-77-|
G|-6--66--66-66-8-2-22-77-77-|        x3
D|-7--77--77-77-9-4-44-77-77-|
A|-7--77--77-77-9-4-44-55-55-|
E|-5--55--55-55-7-2-22-------|

then

e|-5--55--------------------------|
B|-5--55----------44-44-77-77--9--|
G|-6--66----------44-44-77-77--9--|
D|-7--77--2-22-22-44-44-77-77--9--|
A|-7--77--2-22-22-22-22-55-55--7--|
E|-5--55--0-00-00-----------------|
                              Let the E ring

Outro

e|----------------7-------------------------|
B|----6-7-6-4-----7--4--4-6-4---------------|
G|----6-7-6-4--------4--4-6-4---------------|   x3
D|-4--6-7-6-4--44----4--4-6-4-4-------------|
A|-4--4-5-4-2--22----2--2-4-2-4------0------|
E|-2--------------------------2--0-2---2-0--|
                               [the bass plays this bit
                                but u can play it if
                                u want]


| /  slide up
|   slide down
| h  hammer-on
| p  pull-off
| ~  vibrato
| +  harmonic
| x  Mute note

 

Source: http://www.ultimate-guitar.com/tabs/p/paolo_nutini/jenny_dont_be_hasty_tab.htm

Lien à poster
Partager sur d’autres sites

Veuillez vous connecter pour commenter

Vous pourrez laisser un commentaire après vous êtes connecté.



Connectez-vous maintenant
×
×
  • Créer...