Aller au contenu

[Pink floyd] Confortably numb


Messages recommandés

Voila après des mois de recherche de cette chanson dans sa version ultime c'est a dire dans le live Pulse (le meilleur des floyd, a voir sur youtube avec un jeu de lumiere magnifique), je ne suis tombé que sur une seule tab gp mais abominablement fausse donc si quelqu'un possède cette version de confortably numb je lui en serais extremement redevable, par contre pour la version album ya pas de probleme elle se trouve sur tout les sites.

Merci beaucoup d'avance, en espérant enfin de pouvoir plancher sur ce solo qui fait parti des top de la guiatre a mon sens(a 4,30 mn a peut près sur la version Pulse pour ceux qui veulent aller voir

Lien à poster
Partager sur d’autres sites

Un put**n de solo effectivement :x:

J'ai aussi longuement rechercher cette tab sur le net , Mais impossible de trouvé la bonne...

Par contre j'ai aperçu il n'y a pas longtemps le songbook du concert "Pusle" , je croit que c'est encore la meilleur solution pour avoir la tab exact...

 

en attendant , voici une version Gp , je ne sait pas si c'est celle que tu a deja testé , mais a part quelque erreure elle est plutôt bien faite...

                               Comfortably Numb                                 


                                                                     Pink Floyd
Lead Guitar



    Press F5                                   
                                        SH     
    W                   H        Q      E.  S  
E||-------------------|------------------------|
B||-------------------|------------------------|
G||-------------------|----------------<>7---9-|
D||-------------------|------------------------|
A||-------------------|------------------------|
E||-------------------|------------------------|


                                                             3    3     3   3  
 Q.       E  E.  S   E  T T T T    S Q.       T T T  S S T S S.   S  S  S   S  
---------------------------------|---------------------------------------------|
---------------------------------|--------------------------------------10~-12-|
--9b~------L--L---9br-L--L-7---7-|--9-9b~------L-7------7--------/11--L--------|
-----------------------------9---|-----------------9~-L------------------------|
---------------------------------|---------------------------------------------|
---------------------------------|---------------------------------------------|


               3  3            3          
  Q      E     S  S  E.   S S  S  S  S S  
------------------------------------------|
--12b----12pb--10-12-12b------------------|
-----------------------------------7~-L-9-|
-------------------------------(9)--------|
------------------------------------------|
------------------------------------------|


                                                                   SH  
                        |--3-| |-3-|                                   
 T   T T T E   H        S  S S E   S    H         E   S S  E   S   S   
-------------------------7------------|--------------------------------|
-------------------------7-10-7-------|--------------------------------|
--9br-L-L-7---------------------9b--7-|---------------------------<>7~-|
------------9~--L---------------------|--9~--------L-----7-(7)--9------|
--------------------------------------|---------------/9---------------|
--------------------------------------|--------------------------------|


 E  T  T S  H        E  X T. S  
---------------------------7--9-|
-------------------------7------|
--L-----------------------------|
-----9p-7-9~-L--------L---------|
--------------------------------|
--------------------------------|


                     |-----3-----|       |--3-|  
 Q      S S  S    T  S  Q      T T T E   S  S S  
--9b~----L-9b-9pbr-7-----------------------------|
---------------------10-10b~----L-L-L----10p-7---|
-----------------------------------------------9-|
-------------------------------------------------|
-------------------------------------------------|
-------------------------------------------------|


                                                 PH  
 |--3-|  |--3-| |--3--| |-3-| |-3-|   |-3-|          
 S  S S  S  S S S   S S S S S S S S   S S S E    E   
-------7---------------------------------------------|
-----7---10p-7---------------------------------------|
--9b-----------9-9br-L-7-9-7---7---------------------|
-----------------------------9---9-7------------<>9--|
-------------------------------------9g7-5-7---------|
---------------------------------------------7-------|


                     |3|  |--3-| |--3--|  
 S S E   Q    S S  S T S  S  S S S   S S  
------------------------7-----------------|
--------------------------10p-7-----------|
--7-7-7~--L----x-9b-L-L---------9-9br-L-7-|
------------------------------------------|
------------------------------------------|
------------------------------------------|


 |-3-| |-3-| 3  3 3  3 3                       
 S S S S S S S  S T  S S S E   S S   S S S S   
-----------------------------------------------|
-----------------------------------------------|
--9-7---7--------------------------------------|
------9---9-7-9p-7----------------------7-7-7~-|
-------------------9s-7-5---5~--7---7g9--------|
--------------------------7--------------------|


 E  T  T S  S S S  S S  S S  S E   S  S  
----------------------7------------------|
----------7---------7---10----7----------|
----------7b---7-9b--------9b---7~--9p-7-|
--L--9p-7----9---------------------------|
-----------------------------------------|
-----------------------------------------|


 |--3-|  |--3-| |--3--| |-3-| |-3-| |-3-|         
 S  S S  S  S S S   S S S S S S S S S S S S E  S  
-------7------------------------------------------|
-----7---10p-7------------------------------------|
--9b-----------9-9br-L-7-9-7---7------------------|
-----------------------------9---9-7--------------|
-------------------------------------9-8-7-5------|
---------------------------------------------5--7-|


 T  T  T  T  Q.      S E   S  E.    T T    E   S S T   Q.      S T  E  E   
-----------------------------------------|---------------------------------|
-----------------------------------------|---------------------------------|
-----------------------------------------|---------------------------------|
-----------------------------------------|---------------------------------|
-----------------------------------------|---------------------------------|
--7h-8p-7p-5h-7~--------9~--9~-9br---9-7-|--9b--9-7-5-7g9~------L---/7--5--|


              1/                                                 
 E  S S E  E  Q.     S S    S E  S S S S   S S S T T S  S E   S   
--------------------------|---------------------------------------|
--------------------------|--------------------------------7--10b-|
--------------------------|---------7-9-9br-7-9-7-----------------|
--------------------------|----7--9---------------9-7-9~-L--------|
--------------------------|--9------------------------------------|
--3--5-7-9--2--0------L---|---------------------------------------|


  E.     S  Q      T T  S.  S.  E.    S  
---------10------------------------------|
--10b~------10b~----L---10b-10b-10br---7-|
-----------------------------------------|
-----------------------------------------|
-----------------------------------------|
-----------------------------------------|


  E.      S  Q     S X. T.  S.  S.  S   X. X. X. X  T   
----------10--------------------------------------------|
--10brb------10~----L-L-----10b-10b-10br-7-----7--L-10b-|
--------------------------------------------9-----------|
--------------------------------------------------------|
--------------------------------------------------------|
--------------------------------------------------------|


  E  S  E.    S  E.   S E.   S S  
------7--------7--7----7----------|
---L----10~---10p-7~---7------7---|
-------------------------9~-----9-|
----------------------------------|
----------------------------------|
----------------------------------|


 Not perfect timing                                            
 |----------6---------| 6 6     6  |--6--| 6 6                 
 S                  S S S S. S. S. S   S S S S E    E   S T S  
---------------------------------------------------------------|
-------------------------------------------------------------x-|
--9br----------------L-7---9--7--9--9br-L-7---9-7br----------x-|
-------------------------9------------------9--------9~--L---x-|
---------------------------------------------------------------|
---------------------------------------------------------------|


 E   H         E  S S S S     E  S S H         S S S S   
----------------------------|----------------------------|
--7b---------------x-7---7~-|--L----------------x-7---7~-|
--7b---------------x-7---7~-|--L----------------x-7---7~-|
--7b--9~--------L--x-7---7~-|--L--9-7-9~--------x-7---7~-|
----------------------------|----------------------------|
----------------------------|----------------------------|


 E  S S E    S E.  S S S  S S S    E  S S E  E  E  T  T S E   T  T S  
---------------------------------|------------------------------------|
--L-----------x-7------------x-7-|--L---------------------------------|
--L-----------x-7------------x-7-|--L----------------------7~---------|
--L--9-7-9~--x-7---9-7-9~---x-7-|--L--9-7-9-----7--9p-7-------9p-7---|
---------------------------------|-----------------------9----------9-|
---------------------------------|------------------------------------|


              SH                              
 E   T  T S   E  T  T S E  T  T S E   T  T S  
----------------------------------------------|
----------------------------------------------|
-------------<>7-------------------7b---------|
--7~--9p-7--------9p-7---7--9p-7-------9p-7---|
-----------9-----------9---------9----------9-|
----------------------------------------------|


                                   SH         
 E  T  T S E    T  T S E  T  T S   E  T  T S  
----------------------------------------------|
----------------------------------------------|
------------7b~-------------------<>7---------|
--7--9p-7--------9p-7---7--9p-7--------9p-7---|
----------9-----------9---------9-----------9-|
----------------------------------------------|


 E  T  T S E   T  T S E  T  T S E  T  T S  
-------------------------------------------|
-------------------------------------------|
------------7b-------------------7--9~---9-|
--7--9p-7-------9p-7---7--9p-7------9~-7-9-|
----------9----------9---------9-----------|
-------------------------------------------|


 |--3-| |--3-| |--3-|  |-3-|  |--3-|  |-3-| |--3--| |-3-|  
 S  S S S  S S S  S S  S S S  S S  S  S S S S   S S S S S  
-----7-7----7-7----7----7-7----7----7----------------------|
-----7-7----7-7----7----7-7----7----7-10-7-----------------|
--9b-----9b-----9b---9b-----9b---9b--------9-9br-L-7-9-7---|
---------------------------------------------------------9-|
-----------------------------------------------------------|
-----------------------------------------------------------|


 E.   E    S  S  S  Q      S  E   S  
-------------------------------------|
--------------10-12-12b~----L-10--12-|
----------/11------------------------|
--9~---------------------------------|
-------------------------------------|
-------------------------------------|


  S.  S.  E.        E.   S  E     S S S S     
----------------------------------------------|
--12b-12b-12pb---12g10~---L-12----------------|
--------------------------------11g9-7-9-9pbr-|
----------------------------------------------|
----------------------------------------------|
----------------------------------------------|


 S S S E   S S S S S S  E  S S  S  
-----------------------------------|
------7----------------------------|
--L-7---7b--L----------------------|
--------------9-7-9-9-7s-0--L------|
--------------------------------/9-|
-----------------------------------|


                       |--3-|                     
 S S S  S S S S  S E   S  S S T     S  T. S    T. 
------------------------7--------------10-12br-10-|
--------------------------10-L-L-10g12------------|
-----------7-7-9p-7-9b----------------------------|
--7-7-9p-7----------------------------------------|
--------------------------------------------------|
--------------------------------------------------|


  S   Q.       S S  S. S.  E.     S  
--12b-12b~------L---14-14b-14br---14-|
-------------------------------------|
-------------------------------------|
-------------------------------------|
-------------------------------------|
-------------------------------------|


  E.     X. Q      S T X X. T  S.S.  T T T  T T  T   
--14br---12--------------------10-9--10-9-7----7-----|
------------15b~----L-L---------------------10---10b-|
-----------------------------------------------------|
-----------------------------------------------------|
-----------------------------------------------------|
-----------------------------------------------------|


                      3  3         3  
  Q.      S S   S. S. S  S   E   S S  
--------------------------------------|
---L------10-7-5g7-10-10s-7s-10~--L---|
--------------------------------------|
--------------------------------------|
--------------------------------------|
--------------------------------------|


 S  E    S   E    S S S S  S  E.     S   S  
----------------------------------------/19-|
----10b--10b-10br--7---7-7-10-10pb~---------|
---------------------9----------------------|
--------------------------------------------|
--------------------------------------------|
--------------------------------------------|


  E.   T   T  Q    S  S. S. Q      
--19---19p-17-19------19-21-21b----|
-----------------------------------|
-----------------------------------|
-----------------------------------|
-----------------------------------|
-----------------------------------|


 S  S. S. E.     T   T   Q    T T  S. T  S   
--L-21-21-21br---19s-17s-19--------------17~-|
-----------------------------------17b-L-----|
---------------------------------------------|
---------------------------------------------|
---------------------------------------------|
---------------------------------------------|


                                  |---3---|   
  E   E.    S X  T  T  T. E   S S E   E   E   
---L------------------------------------------|
------17br---L-L-15----17-17~--L-L-L--15--17--|
--------------------16------------------------|
----------------------------------------------|
----------------------------------------------|
----------------------------------------------|


  T   T T  T  E   Q    S  E   S S  S S  S  
-------------------------------7-----------|
--17br-L-L-15-------------10b--7-7-10----7-|
--------------16~--L------------------9b---|
-------------------------------------------|
-------------------------------------------|
-------------------------------------------|


 S. T  T T S. T  T T S. T  T T S. T  T T S. T  T T S   
-----7---------7---------7---------7---------7---------|
-------10-7------10-7----7-10-7------10-7----7-10-7----|
--9b--------9b--------9b--------9b--------9b--------9b-|
-------------------------------------------------------|
-------------------------------------------------------|
-------------------------------------------------------|


 T T  T T S. T  T T S. T  T T S. T  T T S. T  T T S. T  
----7---------7---------7---------7---------7---------7-|
----7-10-7------10-7----7-10-7----7-10-7----7-10-7----7-|
--L--------9b--------9b--------9b--------9b--------9b---|
--------------------------------------------------------|
--------------------------------------------------------|
--------------------------------------------------------|


  T T S. T  T T S. T  T T S. T  T T S. T  T T S. T  T T  
----------7---------7---------7---------7---------7------|
--10-7----7-10-7----7-10-7----7-10-7----7-10-7----7-10-7-|
-------9b--------9b--------9b--------9b--------9b--------|
---------------------------------------------------------|
---------------------------------------------------------|
---------------------------------------------------------|


 S. T  T T S. T  T T S   T T S S T T S S S S S  
-----7---------7--------------------------------|
-----7-10-7----7-10-7---------------------------|
--9b--------9b--------9br-7---9-7-------7-------|
----------------------------9-----9-7-9-L-9-9---|
------------------------------------------------|
------------------------------------------------|


   Q     T T  S  S   S  E    S  S  S   S  E    
--------------10-12p-10-12b--12-10-12p-10------|
--/12~----L-------------------------------12~--|
-----------------------------------------------|
-----------------------------------------------|
-----------------------------------------------|
-----------------------------------------------|


  E   S S  S    T  T  S  S  S.   T  Q       S   S  
------10---12br-10----12-12-12br-10-12s~----14s-17-|
---L---------------12------------------------------|
---------------------------------------------------|
---------------------------------------------------|
---------------------------------------------------|
---------------------------------------------------|


  E.    E   E   S  S  X X  S X X  S X X  S X X  S   S   
--19~---19--19---L-19~-L---19-L---19-L---19-L---19s-17s-|
--------------------------------------------------------|
--------------------------------------------------------|
--------------------------------------------------------|
--------------------------------------------------------|
--------------------------------------------------------|


                                       WTF?                            
  E.    E   E.  S  E    S  S  S E      E.   S  E.   S  E.   S  E.   S  
--19~---19--19-----19b--19-19-19----|--17-----10/-----17-----10/-----|
------------------------19-19-------|--17-----10/-----17-----10/-----|
------------------------------------|----------------------------------|
------------------------------------|----------------------------------|
------------------------------------|----------------------------------|
------------------------------------|----------------------------------|


  E.   S  E.   S  E.   S  E.   S     E.   S  E.   S  E.   S  E.   S  
--17-----10/-----17-----10/-----|--17-----10/-----17-----10/-----|
--17-----10/-----17-----10/-----|--17-----10/-----17-----10/-----|
----------------------------------|----------------------------------|
----------------------------------|----------------------------------|
----------------------------------|----------------------------------|
----------------------------------|----------------------------------|


  E.   S  E.   S  E.   S  E.   S     E.   S  E.   S  E.   S  E.   S  
--17-----10/-----17-----10/-----|--17-----10/-----17-----10/-----|
--17-----10/-----17-----10/-----|--17-----10/-----17-----10/-----|
----------------------------------|----------------------------------|
----------------------------------|----------------------------------|
----------------------------------|----------------------------------|
----------------------------------|----------------------------------|


  E.   S  E.   S  E.   S  E    S  S     Q     S  S. S. S.  S. S  S. S. S  
--17-----10/-----17-----10/--17-19-|--19~----L-19-21-21b-21-19-17-14----|
--17-----10/-----17-----10/--------|---------------------------------17-|
-------------------------------------|------------------------------------|
-------------------------------------|------------------------------------|
-------------------------------------|------------------------------------|
-------------------------------------|------------------------------------|


  S.  E  S T  S    T  T  S  S  S. T  S  S E.   
------17--L------------------------------------|
--17b-------L-17br-15----17-17-17-15-----------|
----------------------16-------------16~-L-----|
-----------------------------------------------|
-----------------------------------------------|
-----------------------------------------------|


  Q      Q    S  S.  S.  E   E      Q      Q    S  S.  S.  E   E   
---7------L----L--7---7---7------|---9------L----L--9---9---9------|
--10b-----L----L-10b-10b-10b-----|--12b-----L----L-12b-12b-12b-----|
---------------------------------|---------------------------------|
---------------------------------|---------------------------------|
---------------------------------|---------------------------------|
---------------------------------|---------------------------------|


  Q.      E   Q.      E      E    S  E    S  E    S  E    S  E    S X  T. 
--10----------12----------|-------17------17------17------17------17---19-|
--13b---------15b---------|--17b-----17b-----17b-----17b-----17b----------|
--------------------------|-----------------------------------------------|
--------------------------|-----------------------------------------------|
--------------------------|-----------------------------------------------|
--------------------------|-----------------------------------------------|


                                   3  3 3                                      
  H         S  S. S. S  T   T   T  S  S X     E.    T   T  Q     E.   E.   E   
--19~--------0-19-17-15-14h-15p-14---------|-----------------------------------|
-----------------------------------17-15---|--15b---14h-15---------------------|
-------------------------------------------|---------------14~----L------------|
-------------------------------------------|-----------------------------------|
-------------------------------------------|-----------------------------------|
-------------------------------------------|--------------------------12---L--|


 Q.      E  E  E  S  S S S  
----------------------------|
----------------------------|
----------------------------|
----------------------------|
------------------------5-7-|
--3~------2--0-------/7-----|


   E   S T. T. T.  S S E   T T T  T  T  T S  T  T  T T  T  T  T T  T  T  T S   
----------------------------------------------7----------7----------7-----------
------------------------------------------------10p-7------10p-7------10p-7-----
-------------7--------7-9b--7---9p-0h-9p-0-9b---------9b---------9b---------9pbr
----------9-----9--/9---------9-------------------------------------------------
--7g9~--------------------------------------------------------------------------
--------------------------------------------------------------------------------


 E           
------|-----||
------|-----||
------|-----||
--9--|-----||
--9--|-----||
--7--|-----||




Duration Legend
---------------
W - whole
H - half
Q - quarter
E - 8th
S - 16th
T - 32nd
X - 64th
. - note dotted
|-n-|  - n-tuplets


Tablature Legend
----------------
L - tied note
x - dead note
g - grace note
(n) - ghost note
> - accentuded note
NH - natural harmonic
AH - artificial harmonic
TH - tapped harmonic
SH - semi harmonic
PH - pitch harmonic
h - hammer on
p - pull off
b - bend
br - bendRelease
pb - preBend
pbr - preBendRelease
brb - bendReleaseBend
n/ - tremolo bar dip
n - tremolo bar dive
-/n - tremolo bar Release up
/n - tremolo bar inverted dip
/n - tremolo bar return
-n - tremolo bar Release down
S - shift slide
s - legato slide
/ -  slide into from below or out of upwards
-  slide into from above or out of downwards
~ - vibrato
W - wide vibrato
tr - trill
TP - tremolo picking
T - tapping
S - slap
P - pop
< - fade in
^ - brush up
v - brush down

 

pour telech la tab gp => http://www.911tabs.com/link/?5243268

 

 

 

 

Sujet déplacé par Bloody fingers.

Lien à poster
Partager sur d’autres sites

Veuillez vous connecter pour commenter

Vous pourrez laisser un commentaire après vous êtes connecté.



Connectez-vous maintenant
×
×
  • Créer...