Aller au contenu

[Pink Floyd] Is there anybody out there?


Messages recommandés

Ben voila , un grand classique a la guitare je pense...

                                            4X
|----------------------|----------------------|-----------0--------------|
|----------------------|----------------------|--------1-----1-----------|
|*------2---------2----|-------2---------2---*|-----2-----------2-----2--|
|*---------------------|---------------------*|--2-----------------2-----|
|--0---------0---------|--0---------0---------|--------------------------|
|----------------------|----------------------|--------------------------|



-----------0--------------|-----------0--------------|
--------1-----1-----------|--------1-----1-----------|
-----2-----------2-----2--|-----2-----------2-----2--|
--3-----------------3-----|--4-----------------4-----|
--------------------------|--------------------------|
--------------------------|--------------------------|



-----------0--------------|-----------0-----------0--|
--------1-----1-----------|--------1-----------1-----|
-----2-----------2-----2--|-----2-----------2--------|
--3-----------------3-----|--2-----------0-----------|
--------------------------|--------------------------|
--------------------------|--------------------------|



-----------0-----------0--|--------------0-----------|
--------1-----------1-----|-----------1-----1--------|
-----2-----------2--------|--------2-----------2-----|
--------------------------|-----2-----------------2--|
--3-----------2-----------|--0-----------------------|
--------------------------|--------------------------|



--------------------------|--------------0-----------|
-----------1--------------|-----------1-----1--------|
--------2-----2-----------|--------2-----------2-----|
-----2-----------2-----2--|-----2-----------------2--|
--0-----------------0-----|--0-----------------------|
--------------------------|--------------------------|



--------------------------|-----------0--------------|
-----------1--------------|--------1-----1-----------|
--------2-----2-----------|-----2-----------2-----2--|
-----2-----------2-----2--|--2-----------------2-----|
--0-----------------0-----|--------------------------|
--------------------------|--------------------------|



-----------0--------------|-----------0--------------|
--------1-----1-----------|--------1-----1-----------|
-----2-----------2-----2--|-----2-----------2-----2--|
--3-----------------3-----|--4-----------------4-----|
--------------------------|--------------------------|
--------------------------|--------------------------|



-----------0--------------|-----------------------0--|
--------1-----1-----------|--------1-----------1-----|
-----2-----------2-----2--|-----2-----------2--------|
--3-----------------3-----|--3--------2--0-----------|
--------------------------|--------------------------|
--------------------------|--------------------------|



-----------0--------------|--------------0-----------|
--------1-----1-----------|-----------1-----1--------|
-----2-----------2--------|--------2-----------2-----|
--0-----------------------|-----2-----------------2--|
--------------------3--2--|--0-----------------------|
--------------------------|--------------------------|



--------------------------|--------------0-----------|--------------0--------|
-----------1--------------|-----------1-----1--------|-----------1-----------|
--------2-----2-----------|--------2-----------2-----|--------2--------------|
-----2-----------2-----2--|-----2-----------------2--|-----2-----------------|
--0-----------------0-----|--0-----------------------|--0--------------------|
--------------------------|--------------------------|-----------------------|



--------------0-----------|-----------------0--------|
-----------1-----1--------|-----------1--3-----3--1--|
--------0-----------0-----|--------0-----------------|
-----2-----------------2--|-----0--------------------|
--3-----------------------|--2-----------------------|
--------------------------|--------------------------|



--------------0-----------|--0-----------------------|
-----------0-----0-----1--|--1-----3-----1-----0-----|
--------2-----------2-----|-----4--4--2--2--0--0--0--|
-----2--------------------|--------------------------|
--0-----------------------|--------------------------|
--------------------------|--------------------------|



--------------0-----------|-----------------0--------|
-----------1-----1--------|-----------1--3-----3--1--|
--------0-----------0-----|--------0-----------------|
-----2-----------------2--|-----0--------------------|
--3-----------------------|--2-----------------------|
--------------------------|--------------------------|



--------------0-----------|--8---------7---------|-----------0--------------|
-----------0-----0-----1--|----------------------|--------1-----1-----------|
--------2-----------2-----|---------7------------|-----2-----------2-----2--|
-----2--------------------|----------------------|--2-----------------2-----|
--0-----------------------|----------------------|--------------------------|
--------------------------|----------------------|--------------------------|



-----------0--------------|-----------0--------------|
--------1-----1-----------|--------1-----1-----------|
-----2-----------2-----2--|-----2-----------2-----2--|
--3-----------------3-----|--4-----------------4-----|
--------------------------|--------------------------|
--------------------------|--------------------------|



-----------0--------------|-----------0-----------0--|
--------1-----1-----------|--------1-----------1-----|
-----2-----------2-----2--|-----2-----------2--------|
--3-----------------3-----|--2-----------0-----------|
--------------------------|--------------------------|
--------------------------|--------------------------|


                                                        ^                               
-----------0-----------0--|-----------------5--7--8--|--12----------------|
--------1-----------1-----|-----------1--5-----------|--10----------------|
-----2-----------2--------|--------2-----------------|---9----------------|
--------------------------|-----2--------------------|--10----------------|
--3-----------2-----------|--0-----------------------|---0----------------|
--------------------------|--------------------------|--------------------|

 

Petit souvenir pour ceux qui ont vu le film ;)

Lien à poster
Partager sur d’autres sites

C'est "The Wall" sorti un peu apres l'album en 1982.

 

Mais c'est pas un film avec une histoire et tout , c'est plutot un film musical ou un clip de 1h30 de l'album "The Wall".

Soit moi j'ai trouver ca bien fait mais quand meme un peu chian sur la fin...

Lien à poster
Partager sur d’autres sites
  • 2 weeks later...
  • 7 months later...
  • 8 years later...

Veuillez vous connecter pour commenter

Vous pourrez laisser un commentaire après vous êtes connecté.



Connectez-vous maintenant
×
×
  • Créer...