Aller au contenu

[Pirates des Caraïbes] The medaillon Calls


Messages recommandés

  • 2 weeks later...
e|----0-1-3-5-3-1-0-1-3-5-3--1-3-5--3-1-0-1-0---0----------0-1-0-1-3-1-3-----|
B|--3-----------------------------------------3---1-333--3-------------------|
G|---------------------------------------------------------------------------|
D|---------------------------------------------------------------------------|
A|---------------------------------------------------------------------------|
E|---------------------------------------------------------------------------|

e|-5-3-1------0-1-3-5-6----3-1-3-0-5--5-1-0----------0---0-1-0---1--10-12-13-|
B|-------3--3-----------3-------------------3--3---3-----------3-------------|
G|-----------------------------------------------2-----2---------------------|
D|---------------------------------------------------------------------------|
A|---------------------------------------------------------------------------|
E|---------------------------------------------------------------------------|

e|-12-10-8-13-5-3-1-3-5------------0-1----1-0------------0-1-5-0-------------|
B|---------------------------3-1-3------3-----1-3--3-1-3---------1-----------|
G|---------------------------------------------------------------------------|
D|---------------------------------------------------------------------------|
A|---------------------------------------------------------------------------|
E|---------------------------------------------------------------------------|

e|--------0-1----1-0------------0-1-3-5-----0-1-3-5-3-1-0-1-3-5-3---1-3-5------|
B|--3-1-3------3-----1-3--3-1-3-----------3------------------------------------|
G|------------------------THIS-B-LINE-GOES-WHERE-G-IS--------------------------|
D|-----------------------------------------------------------------------------|
A|-----------------------------------------------------------------------------|
E|-----------------------------------------------------------------------------|

e|-3-1-0---------------0-----------------------------------------------------|
B|-------3-2--3--3--3-----3--3--2--3-----------------------------------------|
G|---------------------------------------------------------------------------|
D|---------------------------------------------------------------------------|
A|---------------------------------------------------------------------------|
E|---------------------------------------------------------------------------|


| /  slide up
|   slide down
| h  hammer-on
| p  pull-off
| ~  vibrato
| +  harmonic
| x  Mute note

Lien à poster
Partager sur d’autres sites
  • 1 month later...

Bonjour,

J'aurais besoin de quelques petits conseils pour jouer ce morceau car le début j'y arrive sans problème mais pour le reste ça ne va pas du tout :hum: Je suis vraiment perdue :boing:

Lien à poster
Partager sur d’autres sites
ou est le debut, et le reste pour toi? on ne sait pas ou tu bloque et on ne peut pas t'aider sois plus precise.

J'arrive à faire la première ligne mais je bloque à la seconde et j'ai des difficultés avec le rythme :hum:

Lien à poster
Partager sur d’autres sites
  • 6 months later...
  • 1 month later...
  • 1 month later...
  • 2 years later...

Je ne sais pas si c'est moi qui était vraiment mauvais ou quoi, mais le début de la tablature donnée en haut de cette page est bonne, mais ça devient vite du n'importe quoi, je trouve. Il manque des parties de la musique, et je trouve pas toujours le son très correct.

C'est pourquoi j'ai cherché cette musique à l'oreille, en entière, pour avoir enfin quelque chose de correct. Personnellement, j'en suis très satisfait, y a juste la fin que je trouve un peu bizarre. Ma famille est convaincue aussi par le morceau joué, du bout en bout.

A savoir qu'au départ, j'avais commencé avec le début de la tablature donnée en haut de cette page. Je l'ai finalement transposée un peu plus grave, mais honnêtement, je trouve ça préférable.

Donc donnez moi un peu de temps pour retranscrire ma tab' et vous pourrez essayer ! (j'ai encore besoin d'un peu d'entraînement pour jouer parfaitement ma tablature, sinon je vous aurais au passage fait une petite vidéo pour que vous écoutiez ce que ça donne).

 

Bref. Sinon, dans le cas où c'est nul et tout et tout, je tiens à dire que j'ai commencé la guitare il y a un an et demi, en total autodidacte. (même si une oreille c'est une oreille xD)

 

A tout de suite :D (enfin, à tout à l'heure, je sens que ça me prendre un temps fou ce truc) !

Modifié par Cr@zyM4n
Lien à poster
Partager sur d’autres sites

e|---------------------------------------------------------------------------|
B|----5-6-8-10-8-6-5-6-8-10-8---6-8-10--8-6-8-10-8-6-5-6-5---5---------------|
G|--7----------------------------------------------------------7---5-777-5---|
D|------------------------------------------------------------------------7--|
A|---------------------------------------------------------------------------|
E|---------------------------------------------------------------------------|

e|---------------------------------------------------------------------------|
B|---------5-6-5-6-8-6-8-10-8-6----------------------------------------6-5---|
G|-------7----------------------7--7-9-10-12-14-15----12-10-12-9-7---------7-|
D|--7--7-------------------------------------------12----------------7-------|
A|---------------------------------------------------------------------------|
E|---------------------------------------------------------------------------|

e|---------------------10-12-13-12-10-8-13---------------------|
B|-----------------------------------------10-8-6-8-10-(12-14)-|
G|-------------------------------------------------------------|
D|--0--0-2--2-3-2-0-2------------------------------------------|
A|---0----0----------------------------------------------------|
E|-------------------------------------------------------------|

e|----------------------------------------------------------------------------------------------------|
B|---------5-6-----6-5----------------5-6-8-10-5----------5-6-----6-5-----------------5-6-8-10-12-14--|
G|--7-5-7------7-7-----5-7-(0)--7-5-7------------5--7-5-7-----7-7-----5-7-(0)--7-5-7------------------|
D|----------------------------------------------------------------------------------------------------|
A|----------------------------------------------------------------------------------------------------|
E|----------------------------------------------------------------------------------------------------|

e|--------------------------------------------------------------------------------------|
B|--------------------------------------------------------------------------------------|
G|--7-9-10-12-14-12-10-9-10-12-14-12--10-12-14-12-10-8---7--7--7--9--7--7-----6------7--|
D|-----------------------------------------------------7--7--7--7--7--7-----7------7----|
A|--------------------------------------------------------------------------------------|
E|--------------------------------------------------------------------------------------|

 

Entre parenthèses les notes que je juge de "facultatives". En effet, ce sont des notes qu'on entend pas forcément dans l'originale, mais qui, avec une guitare seule, permet de ne pas casser le rythme (je trouve).

 

Merci de vos avis, c'est super important, à la fois pour moi, mais aussi pour les personnes qui pourraient alors jouer The Medallion Calls en entière avec une tab "correcte".

Modifié par Cr@zyM4n
Lien à poster
Partager sur d’autres sites

Veuillez vous connecter pour commenter

Vous pourrez laisser un commentaire après vous êtes connecté.



Connectez-vous maintenant
×
×
  • Créer...