Aller au contenu

Placement doigts sur "The sense of me - Mud flow"


Messages recommandés

Bonjour / soir :)

 

J’espère ne pas m’être trompé d'endroit pour mon post pour commencer xD

 

Sinon voila mon problème j'ai tenté de faire " The sense of me - Mud flow " j'ai cherché et trouvé deux TAB

mais une seul m’intéresse l'autre sonne étrange x) bref je galère à savoir comment mettre mes doigts des le début xD.

J'arrive a faire les 3 premières notes puis après c'est le drame je trouve que c'est trop dure ( c'est d’ailleurs peut être

pour ça que j'y arrive tout simplement pas x) )

 

e |---------------------------------------------------------------------------|

B |----------6----------------5-------------------3---------------------------|

G |------7----------------5------------------3--------------------7-----------|

D |--7---------------7-----------------5---------------------7----------------|

A |---------------------------------------------------------------------------|

E |---------------------------------------------------------------------------|

 

e |----------------------------5-------------------3--------------------------|

B |----------6----------------------------------------------------------6-----|

G |------7----------------5------------------3--------------------7-----------|

D |--7---------------7------------------5------------------7------------------|

A |---------------------------------------------------------------------------|

E |---------------------------------------------------------------------------|

 

 

Voila la moitié alors le 7-7-6 j'arrive à faire quelque chose mais le 7-5-5 trop dure xD

 

Voila voila x) merci ! :p

Lien à poster
Partager sur d’autres sites

Ha je suis mal barré .... sur un forum guitare cette blague doit être usé... JUSQU'A LA CORDE ! :no:

Bon sinon plus sérieusement je vais essayer mais je suis pas encore capable avec les barré se sera un défit :D)

 

Merci à vous deux pour cette réponse rapide et claire :)

Lien à poster
Partager sur d’autres sites

Veuillez vous connecter pour commenter

Vous pourrez laisser un commentaire après vous êtes connecté.



Connectez-vous maintenant
×
×
  • Créer...