Aller au contenu

[Pleymo] On ne changera rien


Messages recommandés

Mise à jour et corrigée (2006)

 

Pleymo : On ne changera rien, tab par DarkBen

(darthben@wanadoo.fr)

 

J'espère que cette tab vous plaiera, l'accordage est évidemment E A D G B E

et non en Drop D comme Pleymo.

 

 

/ : Slide
x : éttouffé
h : hammer
p : pull off


Intro
|-----------------------------------------------------------|
|-------------------------------------------------3---------|
|--------0---------0-----------------0--------------4-------|
|-----4----4----4----4------------4----4--------4-----------| ---|x2
|-------------------------------3----------3h5--------------|
|---0---------3---------------------------------------------| 

|-----------------------------------------------------------|
|-----------------------------------------------------------|
|--9--------11-------12--------7----------------------------|
|--9--------11-------12--------7----------------------------| ---|x2
|--7--------9--------10--------5----------------------------|
|-----------------------------------------------------------|
  (x7)     (x7)    (x7)       (x7)


Couplet
|-----------------------------------------------------------|
|-----------------------------------------------------------|
|--------0---------0-----------------0------------0---------|
|-----4----4----4----4------------4----4--------4---4-------| 
|-------------------------------3----------3h5--------------|
|---0---------3---------------------------------------------|

|-----------------------------------------------------------|
|-------------------------------------------------3---------|
|--------0---------0-----------------0--------------4-------|
|-----4----4----4----4------------4----4--------4-----------| 
|-------------------------------3----------3h5--------------|
|---0---------3---------------------------------------------|


Suite couplet (après le coup de platine)

Guitare 1 :
|-----------------------------------------------------------|
|-----------------------------------------------------------|
|-----------------------------------------------------------|
|-----9p7h9--------9p7h9-----12-12-12---10-9----------------| 
|--7------------7----------------------------7--------------|    
|-----------------------------------------------------------| 

|-----------------------------------------------------------|
|-----------------------------------------------------------|
|-----------------------------------------------------------|
|-----9p7h9--------9p7h9-----12-12-12---10-9----------------| 
|--7------------7-------------------------------------------|    
|-----------------------------------------------------------| 

Guitare 2 :
|-----------------------------------------------------------|
|-----------------------------------------------------------|
|-----------------------------------------------------------|
|---9-------5------7------12---/---9-----5-----7------------| 
|---9-------5------7------12---/---9-----5-----7------------|    
|---7-------3------5------10---/---7-----3-----5------------| 
   (x7)    (x7)   (x7)   (x7)     (x7)  (x7)  (x5)


Refrain
|-----------------------------------------------------------|
|-----------------------------------------------------------|
|--9--------11-------12--------7----------------------------|
|--9--------11-------12--------7----------------------------| ---|x2
|--7--------9--------10--------5----------------------------|
|-----------------------------------------------------------|
  (x7)     (x7)    (x7)       (x7)


Couplet
|-----------------------------------------------------------|
|-----------------------------------------------------------|
|--------0---------0-----------------0------------0---------|
|-----4----4----4----4------------4----4--------4---4-------| 
|-------------------------------3----------3h5--------------|
|---0---------3---------------------------------------------|

|-----------------------------------------------------------|
|-------------------------------------------------3---------|
|--------0---------0-----------------0--------------0-------|
|-----4----4----4----4------------4----4--------4-----------| 
|-------------------------------3----------3h5--------------|
|---0---------3---------------------------------------------|

Suite couplet (après le coup de platine)

Guitare 1 :
|------------------------------------------------------------|
|-----------------------------------------------------------|
|-----------------------------------------------------------|
|-----9p7h9--------9p7h9-----12-12-12---10-9----------------| 
|--7------------7----------------------------7--------------|    
|-----------------------------------------------------------| 

|-----------------------------------------------------------|
|-----------------------------------------------------------|
|-----------------------------------------------------------|
|-----9p7h9--------9p7h9-----12-12-12---10-9----------------| 
|--7------------7-------------------------------------------|    
|-----------------------------------------------------------| 

Guitare 2 :
|-----------------------------------------------------------|
|-----------------------------------------------------------|
|-----------------------------------------------------------|
|---9-------5------7------12---/---9-----5-----7------------| 
|---9-------5------7------12---/---9-----5-----7------------|    
|---7-------3------5------10---/---7-----3-----5------------| 
   (x7)    (x7)   (x7)   (x7)     (x7)  (x7)  (x5)


Refrain

Guitare 1 :
|-----------------------------------------------------------|
|-----------------------------------------------------------|
|--9--------11-------12--------7----------------------------|
|--9--------11-------12--------7----------------------------| ---|x2
|--7--------9--------10--------5----------------------------|
|-----------------------------------------------------------|
  (x7)     (x7)    (x7)       (x7)


Guitare 2 : (pdt la reprise du refrain au début de la 3e fois)
|-----------------------------------------------------------|
|----8-7---7/12-8-7-----------------------------------------|
|-----------------------------------------------------------|
|-----------------------------------------------------------| 
|--7--------------------------------------------------------|
|-----------------------------------------------------------|

Guitare 1 :
|-----------------------------------------------------------|
|-----------------------------------------------------------|
|--9--------11-------12--------7----------------------------|
|--9--------11-------12--------7----------------------------| ---|x2
|--7--------9--------10--------5----------------------------|
|-----------------------------------------------------------|
  (x7)     (x7)    (x7)       (x7)


Pont
|-----------------------------------------------------------|
|-----5-5-5-5------7-7-7-7-------8-8-8-8----8-8-8-8---------|
|----4-4-4-4------6-6-6-6-------7-7-7-7----7-7-7-7----------| 
|-----------------------------------------------------------| 
|---3-----/------5------/------7----------7-----------------|
|-----------------------------------------------------------|



La 2eme et les 3eme guitares commencent :

2eme gratte :
|-----0--0-----0----0---0--------2--2------2----2--2----------|
|-------------------------------------------------------------|
|-------------------------------------------------------------|
|-2-2------2-2--------2------4-4------4-4--------4------------| 
|-------------------------------------------------------------|
|-------------------------------------------------------------|

|-----3--3-----3----3---3--------3--3------3----3--3----------|
|-------------------------------------------------------------|
|-------------------------------------------------------------|
|-5-5------5-5--------5------5-5------5-5--------5------------| 
|-------------------------------------------------------------|
|-------------------------------------------------------------|

|-----0--0-----0----0---0--------2--2------2------------------|
|-------------------------------------------------------------|
|-------------------------------------------------------------|
|-2-2------2-2--------2------4-4------4-4---------------------| 
|-------------------------------------------------------------|
|-------------------------------------------------------------|

La 1ere guitare continue la même chose :
|-----------------------------------------------------------|
|-----5-5-5-5------7-7-7-7-------8-8-8-8-------8-8-8-8------|
|----4-4-4-4------6-6-6-6-------7-7-7-7-------7-7-7-7-------| 
|-----------------------------------------------------------| 
|---3---------/--5---------/---7---------/---7--------------|
|-----------------------------------------------------------|

3eme gratte en même temps que la 2eme :
|----7h8p7--7----7h8p7--7--------7h8p7--7----7h8p7--7---------|
|---------8-----------8---------------8-----------8-----------|
|-------------------------------------------------------------| ---|x3
|-------------------------------------------------------------| 
|-------------------------------------------------------------|
|-------------------------------------------------------------|


Refrain

Guitare 1 :
|-----------------------------------------------------------|
|-----------------------------------------------------------|
|--9--------11-------12--------7----------------------------|
|--9--------11-------12--------7----------------------------| ---|x2
|--7--------9--------10--------5----------------------------|
|-----------------------------------------------------------|
  (x7)     (x7)    (x7)       (x7)


Guitare 2 : (pdt la reprise du refrain au début de la 3e fois)
|-----------------------------------------------------------|
|----8-7---7/12-8-7-----------------------------------------|
|-----------------------------------------------------------|
|-----------------------------------------------------------| 
|--7--------------------------------------------------------|
|-----------------------------------------------------------|

Guitare 1 :
|-----------------------------------------------------------|
|-----------------------------------------------------------|
|--9--------11-------12--------7----------------------------|
|--9--------11-------12--------7----------------------------| ---|x2
|--7--------9--------10--------5----------------------------|
|-----------------------------------------------------------|
  (x7)     (x7)    (x7)       (x7)


La fin arrive :

Guitare 1 : (plein d'allers/retours)
|---7/15---7/14----17---------------------------------------|
|-----------------------------------------------------------|
|-----------------------14----------------------------------| 
|-----------------------------------------------------------| ---|x2
|-----------------------------------------------------------|
|-----------------------------------------------------------|

|---7/15---7/14---15-----14---------------------------------|
|-----------------------------------------------------------|
|-----------------------------------------------------------|
|-----------------------------------------------------------| 
|-----------------------------------------------------------|
|-----------------------------------------------------------|


Guitare 2:
|-----------------------------------------------------------|
|-----------------------------------------------------------|
|--x--------------------------------------------------------|
|--x------2-----2------5------------------------------------| 
|--x------2-----2------5------0-----------------------------|
|----------------------3------0-----------------------------|
  (x4)   (x2)  (x2)   (x3)   (x3)

|----------------------------------------------------------|
|----------------------------------------------------------|
|----------------------------------------------------------|
|--------2-----2------5------------------------------------| ---|x3 
|--------2-----2------5------0-----------------------------|
|---------------------3------0-----------------------------|
        (x2)  (x2)   (x3)   (x3)


Outro
|-----------------------------------------------------------|
|-------------------------------------------------3---------|
|--------0---------0-----------------0--------------4-------|
|-----4----4----4----4------------4----4--------4-----------| ---|x2
|-------------------------------3----------3h5--------------|
|---0---------3---------------------------------------------|

 

 

 

 

voiila ! ^^ copiée-collée de abc-tabs, fallait juste connaitre un peu le site, il est parfois vicelard

Lien à poster
Partager sur d’autres sites

Veuillez vous connecter pour commenter

Vous pourrez laisser un commentaire après vous êtes connecté.



Connectez-vous maintenant
×
×
  • Créer...