Aller au contenu

Quels morceaux êtes-vous en train de travailler ?


Messages recommandés

  • Réponses 1,6k
  • Created
  • Dernière réponse

Top Posters In This Topic

oui mais bon la sur la tab c'est tout en croche voir double croche

 

après c'est qu'une tab amateur, si sa se trouve c'est pas du tout sa

 

oui des rondes à 300, on va pas dire que se soit bien chaud...

Lien à poster
Partager sur d’autres sites

Pour ton info, oui c'est bien Kurenai ;) en fait l'intro est très simple après sa se complique plus !

 

et puis je m'applique aussi a essayer de reproduire des solos de Pettruci ( Ceux d'Another Day et de Trough Her Eyes )

Lien à poster
Partager sur d’autres sites
  • 2 weeks later...

En ce moment j'essaie de jouer "what's up" de 4 non-blondes en chantant, et en arpège "je l'aime à mourir" de Cabrel et "lily" de Pierre Perret (euh je suis plus sûr de son nom là:x: ) les deux aussi en chantant. Je suis arrivé à un point où je suis meilleur à la guitare qu'au chant... mais je suis extrêmement nul pour chanter. snif:

je garde espoir!!!!

Lien à poster
Partager sur d’autres sites

morceau pour les debutants :

 

[Classique] Morceau pour débutant

Comme indiqué, il s'agit d'un petit morceau pour débuter tranquillement les arpèges.

Pas de grosse difficultés, aucune note à jouer en simultané (basse+aiguë), un morceau qui se joue doucement à accélerer petit à petit...

Au niveau du rythme, ce ne sont que des noires.

la ligne verte au dessus de la tab sert à repérer les conseils donnés plus bas

 

x2____________________*________________/*____

e-0-----0---------------------------------------------------------

B------------3---1--------1---0-------------3--1--0-------------

G-----------------------------------2-----------------------2-----

D------------------------------------------------------------------

A----0----------------0---------------------------------0---------

E----------------------------------------0-------------------------

 

 

x2____**___/**__**___/**_______________________**____/**___**____/**____________________

e--0-----1------1----------0----------------------------------0--------1-------1------------0------------------------------------

B------------3----------1------1------0--1--3-------1---3-----------------3------------1------1--------3--------0---------------

G---------------------------------------------------------------------------------------------------------------1------------2------

D----0---------------------------------------------------------------0--------------------------------------------------------------

A--------------------0----------------------------0----------------------------------0----------------------------------0-----------

E-----------------------------------0------------------------------------------------------------------0-----------------------------

 

Conseils:

au niveau main gauche, il faut simplement se contenter d'assigner les doigts de manière classique:

index pour la 1ère case

majeur pour la 2ème case

Annulaire pour la 3ème case

 

Au niveau main droite, il faut alterner Index/majeur pour les aiguë, et le pouce toujours pour les basses

 

*:tenir le 2ème doigts sur la 3ème corde jusqu'au /*

**:tenir le premier doigt sur la 1ère ou 2ème corde suivant le cas jusqu'au /**

Lien à poster
Partager sur d’autres sites

Veuillez vous connecter pour commenter

Vous pourrez laisser un commentaire après vous êtes connecté.



Connectez-vous maintenant
×
×
  • Créer...