Aller au contenu
tanguyo

[Renaud] Hexagone

Messages recommandés

j'aimerais travailler l'hexagone de Renaud, mais je ne trouve pas la rythmique correcte. j'ai déjà essayé toutes sortes de rythmiques mais cela ne passe pas. qq'un peut m'aider? Merci!

 

 D								 D
E||--2---2-2---2-2---2---2-2---2-2--|--2--2-2--2-2--2--2-2--2-2--|
B||--3---3-3---3-3---3---3-3---3-3--|--3--3-3--3-3--3--3-3--3-3--|
G||--2-"-2-2-"-2-2-"-2-"-2-2-"-2-2--|--2--2-2--2-2--2--2-2--2-2--|
D||--0---0-0---0-0---0---0-0---0-0--|--0--0-0--0-0--0--0-0--0-0--|
A||---------------------------------|----------------------------|
E||---------------------------------|----------------------------|

 Em			  G		   Em			  G			  
--0--0-0--0-0--0--3-3--3-3-|--0--0-0--0-0--0--3-3--3-3-|
--0--0-0--0-0--0--0-0--0-0-|--0--0-0--0-0--0--0-0--0-0-|
--0--0-0--0-0--0--0-0--0-0-|--0--0-0--0-0--0--0-0--0-0-|
--2--2-2--2-2--2--0-0--0-0-|--2--2-2--2-2--2--0-0--0-0-|
--2--2-2--2-2--2--2-2--2-2-|--2--2-2--2-2--2--2-2--2-2-|
--0--0-0--0-0--0--3-3--3-3-|--0--0-0--0-0--0--3-3--3-3-|

 D						    D			   Dsus2													   
--2--2-2--2-2--2--0-0--0-0--|--2--2-2--2-2--2--0-0--0-0--|
--3--3-3--3-3--3--3-3--3-3--|--3--3-3--3-3--3--3-3--3-3--|
--2--2-2--2-2--2--2-2--2-2--|--2--2-2--2-2--2--2-2--2-2--|
--0--0-0--0-0--0--0-0--0-0--|--0--0-0--0-0--0--0-0--0-0--|
----------------------------|----------------------------|
----------------------------|----------------------------|

 E			   G		   E						   
--0--0-0--0-0--0--3-3--3-3-|--0--0-0--0-0--0--0-0--0-0-|
--0--0-0--0-0--0--0-0--0-0-|--0--0-0--0-0--0--0-0--0-0-|
--0--0-0--0-0--0--0-0--0-0-|--0--0-0--0-0--0--0-0--0-0-|
--2--2-2--2-2--2--0-0--0-0-|--2--2-2--2-2--2--2-2--2-2-|
--2--2-2--2-2--2--2-2--2-2-|--2--2-2--2-2--2--2-2--2-2-|
--0--0-0--0-0--0--3-3--3-3-|--0--0-0--0-0--0--0-0--0-0-|

Il s'embrassent au mois de janvier   car une nouvelle année commence													 
 E								  E
--0--0-0--0-0--0--0-0--0-0-	   |--0--0-0--0-0--0--0-0--0-0-|
--0--0-0--0-0--0--0-0--0-0-	   |--0--0-0--0-0--0--0-0--0-0-|
--0--0-0--0-0--0--0-0--0-0-	   |--0--0-0--0-0--0--0-0--0-0-|
--2--2-2--2-2--2--2-2--2-2-	   |--2--2-2--2-2--2--2-2--2-2-|
--2--2-2--2-2--2--2-2--2-2-	   |--2--2-2--2-2--2--2-2--2-2-|
--0--0-0--0-0--0--0-0--0-0-	   |--0--0-0--0-0--0--0-0--0-0-|

et depuis des éternités	   n'a pas vraiment changé la France											   
 E						   E
--0--0-0--0-0--0--0-0--0-0-|--0--0-0--0-0--0--0-0--0-0-|
--0--0-0--0-0--0--0-0--0-0-|--0--0-0--0-0--0--0-0--0-0-|
--0--0-0--0-0--0--0-0--0-0-|--0--0-0--0-0--0--0-0--0-0-|
--2--2-2--2-2--2--2-2--2-2-|--2--2-2--2-2--2--2-2--2-2-|
--2--2-2--2-2--2--2-2--2-2-|--2--2-2--2-2--2--2-2--2-2-|
--0--0-0--0-0--0--0-0--0-0-|--0--0-0--0-0--0--0-0--0-0-|

						   passent les jours et les semaines
 D			   Dsus2	    D					   
--2--2-2--2-2--2--0-0--0-0--|--2--2-2--2-2--2--2-2--2-2--|
--3--3-3--3-3--3--3-3--3-3--|--3--3-3--3-3--3--3-3--3-3--|
--2--2-2--2-2--2--2-2--2-2--|--2--2-2--2-2--2--2-2--2-2--|
--0--0-0--0-0--0--0-0--0-0--|--0--0-0--0-0--0--0-0--0-0--|
----------------------------|----------------------------|
----------------------------|----------------------------|

y'a que le décor qui change    le mentalité est la même
 D						    D					  
--2--2-2--2-2--2--2-2--2-2--|--2--2-2--2-2--2--2-2--2-2--|
--3--3-3--3-3--3--3-3--3-3--|--3--3-3--3-3--3--3-3--3-3--|
--2--2-2--2-2--2--2-2--2-2--|--2--2-2--2-2--2--2-2--2-2--|
--0--0-0--0-0--0--0-0--0-0--|--0--0-0--0-0--0--0-0--0-0--|
----------------------------|----------------------------|
----------------------------|----------------------------|

tous des tocards tous des faux culs
 D							 E			   G		 
--2--2-2--2-2--2--2-2--2-2-- |--0--0-0--0-0--0--3-3--3-3-|
--3--3-3--3-3--3--3-3--3-3-- |--0--0-0--0-0--0--0-0--0-0-|
--2--2-2--2-2--2--2-2--2-2-- |--0--0-0--0-0--0--0-0--0-0-|
--0--0-0--0-0--0--0-0--0-0-- |--2--2-2--2-2--2--0-0--0-0-|
---------------------------- |--2--2-2--2-2--2--2-2--2-2-|
---------------------------- |--0--0-0--0-0--0--3-3--3-3-|

y sont pas lourds etc...
 E						   
--0--0-0--0-0--0--0-0--0-0-||
--0--0-0--0-0--0--0-0--0-0-||
--0--0-0--0-0--0--0-0--0-0-||
--2--2-2--2-2--2--2-2--2-2-||
--2--2-2--2-2--2--2-2--2-2-||
--0--0-0--0-0--0--0-0--0-0-||
"Hexagone" Renaud
mim
Ils s'embrassent au mois de janvier
Car une nouvelle année commence
Et depuis des éternités
						 ré   résus2	 
N'a pas tellement changé la France
Passent les jours et les semaines
Y'a qu'le décor qui évolue
la mentalité est la même
					   mim	  sol
Tous des tocards tous des faux culs
Y sont pas lourds en février
A se souvenir de Charonne
Des matraqueurs assermentés
Qui fignolèrent leur besogne
La France est un pays de flics
A tous les coins d'rues y'en a cent
Pour faire régner l'ordre publique
Ils assassinent impunément
Quand on exécute au mois de mars
De l'aut' coté des Pyrénées
Un anarchiste du pays basque
pour lui apprendre à s'révolter
Ils crient ils pleurent et ils s'indignent
De cette immonde mise à mort
Et ils oublient qu'la guillotine
Chez nous aussi ça plaît encore
mim						 ré   résus2
Et' né sous l'signe de l'hexagone
								 mim   sol
C'est pas s'qu'on fait d'mieux en c'moment
					   ré    résus2
Et le roi des cons sur son trône
					   mim 
J'parierai pas qu'il est flamand
On leur a dit au mois d'avril
A la télé dans les journaux
De ne pas s'découvrir d'un fil
Qu'le printemps c'était pour bientôt
Les vieux principes du seizième siècle
Et les traditions imbéciles
Ils les appliquent tous à la lettre
Y font pitié tous ces débiles

Ils se souviennent au moi de mai
D'un sang qui coula rouge et noir
D'une révolution manquée
Qui faillit renverser l'histoire
J'm souvient surtout d'ces moutons
Effrayés par la liberté
S'en allant voter par million
Pour l'ordre et la sécurité

Ils commémorent au moi de juin
Un débarquement d'Normandie
Ils pensent au brave soldat ricains
Qu'est v'nu se faire tuer loin d'chez lui
Ils oublient qu'a l'abri des bombes
Les français criaient vive Pétain
Qu'ils étaient bien planqués à Londres
Qu'y avait pas beaucoup d'Jean Moulin

Et' né sous l'signe de l'hexagone
C'est pas une gloire en vérité
Et le roi des cons sur son trône
Me dite pas qu'il est portugais
Ils font la fête au moi d'juillet
En souv'nir d'une révolution
Qui n'a jamais éliminé
La misère et l'exploitation
Ils s'abreuvent de bals populaires
D'feus d'artifices et de flonflons
Ils pensent oublier dans la bière
Qu'ils sont gouvernés par des cons

Au mois d'Août c'est la liberté
Après une longue année d'usine
Ils crient vivent les congés payés
Ils oublient un peu la machine
En Espagne en Grèce ou en France
Ils vont polluer toutes les plages
Et par leur unique présence
Abîmer tous les paysages

Lorsqu'en septembre on assassine
Un peuple et une liberté
Au coeur de l'Amérique latine
Y sont pas beaucoup à gueuler
Un ambassadeur se ramène
Bras ouverts ils est accueilli
Le fascisme c'est la gangrène
De Santiago jusqu'à Paris

Et' né sous l'signe de l'hexagone
C'est vraiment pas une sinécure
Et le roi des cons sur son trône
Ils est français ça j'en suis sur

Finies les vendanges en Octobre
Le raisin fermente en tonneaux
Ils sont très fiers de leurs vignobles
D'leurs cotes du Rhône et d'leurs Bordeaux
Ils exportent le sang de la terre
Un peu partout à l'étranger
Leurs pinard et leurs camemberts
C'est leur seule gloire à ces tarés

En novembre au salon d'l'auto
Ils vont admirer par millions
L'dernier modèle de chez Peugeot
Qu'y pourront jamais se payer
La bagnole la télé l'tiercé
C'est l'opium du peuple de France
Lui supprimer c'est le tuer
C'est une drogue à accoutumance

En décembre c'est l'apothéose
La grande bouffe et les p'tits gâteaux
Ils sont toujours aussi moroses
Mais y'a d'a joie dans les ghettos ( y'a d'a joie )
La terre peu s'arrêter d'tourner
Y ratront pas leur réveillon
Moi j'voudrais tous les voir crever
Etouffés de dindes aux marrons

Et'né sous l'signe de l'hexagone
On peu pas dire qu'se soit bandant
Si l' roi des cons perdait son trône
Y aurait soixante millions de prétendants

 

source ABCtabs.com

Modifié par toffy

Partager ce message


Lien à poster
Partager sur d’autres sites

Je me rappelle avoir essayé cette rythmique toute simple et que cela sonnait bien :BH BH Bh Bh (on joue les coups en majuscule)

Après franchement j'aurais bien aimé aussi connaître la rythmique utilisée.

Partager ce message


Lien à poster
Partager sur d’autres sites

Vite fait, ça doit tourner BHB(h)B(h)B(h) .

Celle de Ricolo est bien aussi.

Ou BH(b)HBHBHBH sachant que les HB sont à 0.75 et que le (b) et le H sont à 0.25, celle-ci tiré d'une partition GP

Modifié par toffy

Un correcteur d’orthographe : Outils,Options,Avancé,cochez : vérifiez l'orthographe lors de la frappe.

Si vous faîtes une faute d'orthographe, le mot sera souligné en rouge, un clic droit sur ce mot vous donnera le bon mot orthographié.

 

Un super luthier à Arras: http://guitartetsens...therie#!atelier

 

Envie de gratter avec moi? Tu es du 62/59? N'hésitez pas à m'envoyer un MP

 

Cherche guitariste débutant / batteur / bassiste / clavieriste pour formation groupe Cover à dIRE sTRAITS

 

http://riki-le-plect...et/?lang=fr De magnifiques médiators

Partager ce message


Lien à poster
Partager sur d’autres sites

Ou BH(b)HBHBHBH sachant que les HB sont à 0.75 et que le (b) et le H sont à 0.25, celle-ci tiré d'une partition GP

 

Je capte pas trop? Bon c'est vendredi et je suis un peu crevé.... mais c'est quoi ton histoire de 0.75 et 0.25?

Partager ce message


Lien à poster
Partager sur d’autres sites

une noire=1 temps

une croche= 0.5 temps

une croche pointé= 0.75

une double croche= 0.25


Un correcteur d’orthographe : Outils,Options,Avancé,cochez : vérifiez l'orthographe lors de la frappe.

Si vous faîtes une faute d'orthographe, le mot sera souligné en rouge, un clic droit sur ce mot vous donnera le bon mot orthographié.

 

Un super luthier à Arras: http://guitartetsens...therie#!atelier

 

Envie de gratter avec moi? Tu es du 62/59? N'hésitez pas à m'envoyer un MP

 

Cherche guitariste débutant / batteur / bassiste / clavieriste pour formation groupe Cover à dIRE sTRAITS

 

http://riki-le-plect...et/?lang=fr De magnifiques médiators

Partager ce message


Lien à poster
Partager sur d’autres sites

Un correcteur d’orthographe : Outils,Options,Avancé,cochez : vérifiez l'orthographe lors de la frappe.

Si vous faîtes une faute d'orthographe, le mot sera souligné en rouge, un clic droit sur ce mot vous donnera le bon mot orthographié.

 

Un super luthier à Arras: http://guitartetsens...therie#!atelier

 

Envie de gratter avec moi? Tu es du 62/59? N'hésitez pas à m'envoyer un MP

 

Cherche guitariste débutant / batteur / bassiste / clavieriste pour formation groupe Cover à dIRE sTRAITS

 

http://riki-le-plect...et/?lang=fr De magnifiques médiators

Partager ce message


Lien à poster
Partager sur d’autres sites

Un correcteur d’orthographe : Outils,Options,Avancé,cochez : vérifiez l'orthographe lors de la frappe.

Si vous faîtes une faute d'orthographe, le mot sera souligné en rouge, un clic droit sur ce mot vous donnera le bon mot orthographié.

 

Un super luthier à Arras: http://guitartetsens...therie#!atelier

 

Envie de gratter avec moi? Tu es du 62/59? N'hésitez pas à m'envoyer un MP

 

Cherche guitariste débutant / batteur / bassiste / clavieriste pour formation groupe Cover à dIRE sTRAITS

 

http://riki-le-plect...et/?lang=fr De magnifiques médiators

Partager ce message


Lien à poster
Partager sur d’autres sites

Veuillez vous connecter pour commenter

Vous pourrez laisser un commentaire après vous êtes connecté.



Connectez-vous maintenant

×
×
  • Créer...