Aller au contenu

[Richard Sanderson] Dreams are my reality


Messages recommandés

Dreams are my reality - Richard Sanderson

Intro: G   Bm   Dm   E   Am

G                   Bm    
Met you by surprise I didn't realise  
Dm                           E     (D E) 
that my life would change forever 
Am                     Cm 
Saw you standing there I didn't know I'd care  
Bm7                 Em7            A7   D7 
There was something special in the air 
G                  B7                  Em7       A7 
DreAms are my reality the only kind of real fantasy 
         C            D7      Bm7            Em7 
Illusions are a common thing I try to live in dreAms 
  Am7                      Fmaj D7 
It seems as if it's meant to be 


G                  B7                    Em7  A7 
DreAms are my reality a diffrent kind of reality 
          C             D7        Bm7            Em7 
I dreAm of loving in the night and loving seems alright 
 Am7              D7   C G 
Although it's only fantasy 


G               Bm                                
If you do exist Honey don't resist  
Dm                   E     (D E) 
show me a new way of loving 
Am                     Cm  
Tell me that it's true show me what to do  
Bm7              Em7           A7  D7 
I feel something special about you 


G                  B7                  Em7  A7 
DreAms are my reality the only kind of reality 
        C               D7       Bm7          Em7 
Maybe my foolishness is past and maybe now at last 
    Am7                        Fmaj D7 
I'll see how the real thing can be 
G                  B7                        Em7       A7 
DreAms are my reality a wondrous world where I like to be 
          C               D7        Bm7               Em7 
I dreAm of holding you all night and holding you seems right 
  Am7              D7 C G 
Perhaps that's my reality 


G                   Bm    
Met you by surprise I didn't realise 
Dm                           E     (D E) 
that my life would change forever 
Am                     Cm  
Tell me that it's true feelings that on you 
Bm7              Em7           A7  D7 
I feel something special about you 


                 B7                        Em7       A7 
DreAms are my reality a wondrous world where I like to be 
         C            D7      Bm7            Em7 
Illusions are a common thing I try to live in dreAms 
 Am7              D7   C G 
Although it's only fantasy 


G                 B7                        Em7        A7 
DreAms are my reality I like to dreAm of you close to me 
        C            D7       Bm7          Em7 
I dreAm of loving in the night and loving you seems right 

  Am7              D7 C G 
Perhaps that's my reality 


 

Source : www.e-chords.com

 

:guitare:

 

Béhèf

Lien à poster
Partager sur d’autres sites

Comme je connais tes goûts, je t'ai tablé la mélodie.

 

Dreams are my reality – Richard Sanderson
La boum – B.O.

Intro :
  G         Bm        Dm       E        Am
e|-------10--------10-----------------------|
B|-12--------10--------10-12-13----10-12-10-|
G|----12--------11--------------13----------|
D|------------------------------------------|
A|------------------------------------------|
E|------------------------------------------|

Chant :
  G               Bm              Dm                E     (D-E)
e|----10-10----10-----10-10----10--13-12-13-12-13-------12-|
B|-12-------12-----12-------12--------------------10-------|
G|---------------------------------------------------13----|
D|---------------------------------------------------------|
A|---------------------------------------------------------|
E|---------------------------------------------------------|

  Am              Cm              Bm7            Em7      A7 (D7)
e|--------------------11-11----11-----10----------------------|
B|-10-13-13-10-13--13-------13-----12----13-12-10----------10-|
G|------------------------------------------------12-11-12----|
D|------------------------------------------------------------|
A|------------------------------------------------------------|
E|------------------------------------------------------------|

  G                  B7                Em7      A7
e|-----------------------------------------14-12----|
B|-12-----13-12-10----12----13-12-10----12-------12-|
G|-----------------12----------------12-------------|
D|----12-----------------13-------------------------|
A|--------------------------------------------------|
E|--------------------------------------------------|

          C           D7    Bm7        Em7   Am7            FM7(D7)
e|---------------------------12-10-10-9-10----10-8-8----8-------|
B|---------12-10-10----10----------------------------12---12-10-|
G|-9-11-12----------13----11---------------12-------------------|
D|--------------------------------------------------------------|
A|--------------------------------------------------------------|
E|--------------------------------------------------------------|

  G                  B7                Em7      A7
e|-----------------------------------------14-12----|
B|-12-----13-12-10----12----13-12-10----12-------12-|
G|-----------------12----------------12-------------|
D|----12-----------------13-------------------------|
A|--------------------------------------------------|
E|--------------------------------------------------|

          C           D7    Bm7        Em7   Am7       D7   C (G)
e|---------------------------12-10-10-9-10----10-8-8-----------|
B|---------12-10-10----10----------------------------12-10-8-8-|
G|-9-11-12----------13----11---------------12------------------|
D|-------------------------------------------------------------|
A|-------------------------------------------------------------|
E|-------------------------------------------------------------|


 

:guitare:

 

Béhèf

Lien à poster
Partager sur d’autres sites

Veuillez vous connecter pour commenter

Vous pourrez laisser un commentaire après vous êtes connecté.



Connectez-vous maintenant
×
×
  • Créer...