Aller au contenu
  • 0
Camillou

[Simple plan] Save you

Question

Salut ! je cherche la tablature de cette chanson pour pouvoir la jouer à la guitare sèche, alors si quelqu'un pouvait m'aider... merci d'avance ! :D


:)...

Partager ce message


Lien à poster
Partager sur d’autres sites

2 réponses à cette question

Messages recommandés

  • 0

Je ne suis pas sûr de cette tablature c'est une amie qui me la passé et je ne l'est jamais testé mais si je peux t'aider ^^

 

Sim Sol Ré La

E -------------||---2---3---2----0---||

B -------------||---3---3---3----2---||

G -------------||---4---4---2----2---||

D -------------||---4---5---0----2---|| x3

A --2--2--2--2-||---2---5---x----0---||

E -------------||---2---3---x----x---||

 

Amorce 1 :

 

Sol Sim La

E ----3----2----0---||

B ----0----3----2---||

G ----0----4----2---||

D ----0----4----2---|| x2

A ----2----2----0---||

E ----3----2----x---||

 

Refrain :

 

Ré La Sol Sim La

E --2----0---3----2----0---||

B --3----2---0----3----2---||

G --2----2---0----4----2---||

D --0----2---0----4----2---|| x2

A --x----0---2----2----0---||

E --x----x---3----2----x---||

 

Couplet 2 : cf. couplet 1

 

Amorce 2 : cf. amorce 1

 

Refrain

 

Riff :

 

Sim Ré Sim La Do Sol La

E ---2---2----2----0---|| --0----3----0---||

B ---3---3----3----2---|| --1----0----2---||

G ---4---2----4----2---|| --0----0----2---||

D ---4---0----4----2---|| x3 --2----0----2---||

A ---2---x----2----0---|| --3----2----0---||

E ---2---x----2----x---|| --x----3----x---||

 

Refrain (instrumental)

 

Ré La Sol Sim La Ré La

E --2----0---3----2----0---||---2---0--||

B --3----2---0----3----2---||---3---2--||

G --2----2---0----4----2---||---2---2--||

D --0----2---0----4----2---||---0---2--||

A --x----0---2----2----0---||---x---0--||

E --x----x---3----2----x---||---x---x--||

 

Solo :

 

E -------------------------------------------------------------------

B --------------7-------7------7-----------------7---7-8-7-----------

G ----7-9-7---7---7---7---7--9---9-7---7-9-7---7---7-------9--9-9-7--

D --0-------0-------0----------------0-------0-----------------------

A -------------------------------------------------------------------

E -------------------------------------------------------------------

 

E -----------------------------------||

B --------------7-------7-----7------||

G ----7-9-7---7---7---7---7-9---9-7--||

D --0-------0-------0----------------||

A -----------------------------------||

E -----------------------------------||

 

Amorce 3 : cf. amorce 1

 

Refrain final

 

Ré La Sol Sim La

E --2----0---3----2----0---||

B --3----2---0----3----2---||

G --2----2---0----4----2---||

D --0----2---0----4----2---|| x3

A --x----0---2----2----0---||

E --x----x---3----2----x---||

 

J'éspère que ça t'aidera :D


Simple PLan

-

Sum 41

-

Green Day

-

Good Charlotte

-

The AAR

-

Lifehouse

-

Scorpions

-

Smash Mouth

-

Paramore

-

Hoobastank......

Partager ce message


Lien à poster
Partager sur d’autres sites

Veuillez vous connecter pour commenter

Vous pourrez laisser un commentaire après vous êtes connecté.



Connectez-vous maintenant

×
×
  • Créer...