Aller au contenu

[Tété] À la faveur de l'automne


Messages recommandés

slt a tous, je suis a la recherche de cette tab ,mais la bonne avec les bonnes paroles car soit la tab est incompléte ou cé carrément ilisible :rules: merci a tous pour vos réponse

Lien à poster
Partager sur d’autres sites

Content de te revoir sbud!! :)

 

y'a deja un sujet avec la tabs :wink:
t'es sur c'était pas sur une autre forum? :p

j'ai rien trouvé moi....

 

 

version 1:

		          C                 Em
E|--------------------------------------------------0--0-----|
B|-----0-------0-------0------0---------------0-----0--0-----|
G|---0-------0-------0------0---------0-----2---2---0--0-----|
D|-2-----2-1-----1-0----0s3-----3---2---2-1---------2--0h2---|
A|--------------------------------3-----------------2--2-----|
E|--------------------------------------------------0--0-----|
Posté devant la fenêtre je guette les âmes ésseulées A la faveur de l'automne 

	     		   C		   G	
E|----------------------------------------------------------|
B|-----0-------0-------0-------0---------------0---3--------|
G|---0-------0-------0-------0---------0-----2---2-0--------|
D|-2-----2-1-----1-0-----0s3-----3---2---2-1-------0--0-4-0-|
A|---------------------------------3---------------2--------|
E|-------------------------------------------------3--------|
Posté devant la fenêtre je regrette de n'y avoir songer maintenant que tu abandonnes 


  C  G/B  Am			  C   G/B Am
E|-0-------0----------------------0-------0-------------------------|
B|-1--3----1----------------------1---3---1-------------------------|
G|-0--0----2----------0-2---------0---0---2-------------------------|
D|-2--0----2--------0-----2-0-----2---0---2------------5-7p5--------|
A|-3--2----0------------------3-2-3---2---0--------5s7-------7-5----|
E|------------------------------------------------------------------|
A la faveur de l'automne revient cette douce mélancolie. 
1, 2, 3 ,4 un peu comme on fredonne de meilleures mélodies 

  G  		       Em                                      
E|----------------------0--0---------|
B|-3--0---0---0-----0---0--0---------|
G|-0--0---0---0--0--2---0--0---------|
D|-0--1---2---3--2--1---2--0h2-------|
A|-2-------------3------2--2---------|
E|-3--------------------0--0---------|
Rivé devant le téléphone j'attends que tu daignes m'appeler que tu te décides enfin. 

		          C                 Em  Em                
E|--------------------------------------------------0---0---------------|
B|-----0-------0-------0------0---------------0-----0---0---------------|
G|---0-------0-------0------0---------0-----2---2---0---0------------0--|
D|-2-----2-1-----1-0----0s3-----3---2---2-1---------2---2--0h2-2-2s4----|
A|--------------------------------3-----------------2---2---------------|
E|--------------------------------------------------0---0---------------|
Toi tes allures de garçonnes m'emprisonnent de la monotonie 
De mes journées, de mes nuits 


  C  G/B  Am			  C   G/B Am
E|-0-------0----------------------0-------0-------------------------|
B|-1--3----1----------------------1---3---1-------------------------|
G|-0--0----2----------0-2---------0---0---2-------------------------|
D|-2--0----2--------0-----2-0-----2---0---2------------5-7p5--------|
A|-3--2----0------------------3-2-3---2---0--------5s7-------7-5----|
E|------------------------------------------------------------------|
A la faveur de l'automne revient cette douce mélancolie 
1, 2, 3, 4 un peu comme onfredonne de meilleures mélodies 

  C   G/B Am                        C   G/B Am            
E|-0-------0-------------------------0-------0---0---|
B|-1---3---1-------------------------1---3---1---1---|
G|-0---0---2-------------------------0---0---2---2---|
D|-2---0---2------------5-7p5--------2---0---2---2---|
A|-3---2---0--------5s7-------7-5----3---2---0---0---|
E|---------------------------------------------------|
A la faveur de l'automne tu redonnes à ma mélancolie ses couleurs de superscopie


E|------------|
B|-0--1--1--3-|
G|-0--0--0--0-|
D|-3--2--1--0-|
A|----------2-|
E|----------3-|
A la faveur de l'automne


E|-------------------------------------------------|
B|-----0-------0-------0-------0---------------0---|
G|---0-------0-------0-------0---------0-----2---2-|
D|-------0-1-----1-2-----2-3-----3---2---2-1-------|
A|---------------------------------3---------------|
E|-3-----------------------------------------------|

					  Em       
E|-------------------------------------------------0--0----|
B|-----0-------0-------0-------0---------------0---0--0----|
G|---0-------0-------0-------0---------0-----2---2-0--0----|
D|-------0-1-----1-2-----2-3-----3---2---2-1-------2--0h2--|
A|---------------------------------3---------------2--2----|
E|-3-----------------------------------------------0--0----|
Comment ai-je pu seulement être aussi bête on m'avait prévenu voici la vérité nue. 
					   G	
E|----------------------------------------------------------|
B|-----0-------0-------0-------0---------------0---3--------|
G|---0-------0-------0-------0---------0-----2---2-0--------|
D|-------0-1-----1-2-----2-3-----3---2---2-1-------0--0-4-0-|
A|---------------------------------3---------------2--------|
E|-3-----------------------------------------------3--------|
Manquerait plus que le mauvais temps s'y mette une goutte de pluie et j'aurai vraiment tout perdu 

A la faveur de l'automne revient cette douce mélancolie 
1, 2, 3, 4 un peu comme onfredonne de meilleures mélodies 
A la faveur de l'automne tu redonnes à ma mélancolie ses couleurs de superscopie 


G/B  Am Em


             	 					         G	     
E|----------------------------------------------------------------------|
B|-----0-------0-----0-------0-------0-------0---------------0---3------|
G|---0-------0-----0-------0-------0-------0---------0-----2---2-0------|
D|---------------------0-1-----1-2-----2-3-----3---2---2-1-------0------|
A|-4-----4-3-------------------------------------3---------------2------|
E|---------------3-----------------------------------------------3------|

 

version 2 :

E|-----------------------------------------------------------------------|
B|-----0-------------------------0-----------------0---------------------|
G|-----4-------4-------4---------0-------0---------4------0-----------0--|
D|---5-----------5---5---------5-5-5-----5-------7--------2-----0h2---2--|
A|-7-------6-6-----5-----5s7-8-------3-3---3s5-6----------2---2-------2--|
E|----------------------------------------------------0-0---0-------0----|



E|----------------------------------------------------------------|
B|-------------------------------------------0------0----------0--|
G|---0----0----0-----------0-------0---------4------0----------0--|
D|---5----5----5-------------------5-------7--------2-----0h2--2--|
A|-2s7----6----5-----5s7-8-----3-3---3s5-6----------2---2------2--|
E|----------------------------------------------0-0---0------0----|

Posté devant la fenêtre je guette les âmes ésseulées A la faveur de l'automne


E|---------------------------------------------------------|
B|-0----0--------0---------0-------------------0-----------|
G|-0----0--------0---------0------0-----0------0-----------|
D|-5----5------5-5-------5-5------5-----7------0------4-0--|
A|-7----6--6-5---5-5-7-8---8--3-3---3s5-6------2----2------|
E|-----------------------------------------3-3-3-----------|

Posté devant la fenêtre je regrette de n'y avoir songer maintenant que tu abandonnes 


E|-3---2---0---------------------3---2---0--------------------|
B|-5---4---1--1-1-1--------------5---4---1--------------------|
G|-4---3---2--0-0h2--------------4---3---2--------------------|
D|-5---3---2--------0h2-0--------5---3---2-------5-5h7-5------|
A|-3---2---0--------------3-2-3--3---2---0---5s7---------7-5--|
E|------------------------------------------------------------|

A la faveur de l'automne revient cette douce mélancolie. 
1, 2, 3 ,4 un peu comme on fredonne de meilleures mélodies 


E|------------------------0--0---0-----|
B|-0---0---0---0---0---0--0--0---0-----|
G|-0---0---0---0---0---0--0--0---0-----|
D|-0---1---2---3---5---7--2--0h2-2-----|
A|-x---------------3-s-6--2--2---2-----|
E|-3----------------------0--0---0-----|

Rivé devant le téléphone j'attends que tu daignes m'appeler que tu te décides enfin.


E|-------------------------------------------------------------------------|
B|---------------------------------------0----------0----------------------|
G|---0----0----0---------0---------0-----0----------0---------0---0----0---|
D|---5----5----5---------5---------5-----7----------2-----0h2-2---2s4--4s5-|
A|-2s7----6----5-----5s7-8-----3-3---3s5-6----------2----------------------|
E|----------------------------------------------0-0---0--------------------|

Toi tes allures de garçonnes m'emprisonnent de la monotonie de mes journées, de mes nuits


E|-3---2---0---------------------3---2---0--------------------|
B|-5---4---1--1-1-1--------------5---4---1--------------------|
G|-4---3---2--0-0h2--------------4---3---2--------------------|
D|-5---3---2--------0h2-0--------5---3---2-------5-5h7-5------|
A|-3---2---0--------------3-2-3--3---2---0---5s7---------7-5--|
E|------------------------------------------------------------|

A la faveur de l'automne revient cette douce mélancolie. 
1, 2, 3 ,4 un peu comme on fredonne de meilleures mélodies 


E|-3---2---0---------------------3---2---0-------|
B|-5---4---1--1-1-1--------------5---4---1-------|
G|-4---3---2--0-0h2--------------4---3---2-------|
D|-5---3---2--------0h2-0--------5---3---2-------|
A|-3---2---0--------------3-2-3--3---2---0-------|
E|-----------------------------------------------|

A la faveur de l'automne tu redonnes à ma mélancolie ses couleurs de superscopie


E|--------------------------3-----|
B|-----0--------------------3-----|
G|-----0-------5-------5----0-----|
D|---5---5---5-5-5-----5----0-----|
A|-8-------7---7---6-6-6-6--2-----|
E|--------------------------3-----|

A la faveur de l'automne wooow woooow

E|-----------------------------------------------------------------------|
B|-----0-------0-------0-------0-----0-----0-----------------------------|
G|-----0-----2-------0-------0-0-----0-----0-----------------------------|
D|---0---0-1-----1-2-----2-3---------5-----7-----------------------------|
A|-------------------------------3-3-3--s--6-----------------------------|
E|-3---------------------------------------------------------------------|

A la faveur de l'automne oooh oooh 


E|----------------------------------------------0---0-------0-------------|
B|-----0-------0-------0-------0-----0-----0----0---0-------0-------------|
G|-----0-----2-------0-------0-0-----0-----0----0---0-------0-------------|
D|---0---0-1-----1-2-----2-3---------5-----7----2---0h2-----2-------------|
A|-------------------------------3-3-3--s--6----2---2-------2-------------|
E|-3--------------------------------------------0---0----0--0-------------|

Comment ai-je pu seulement être aussi bête on m'avait prévenu voici la vérité nue. 


E|---------------------------------------------3---------|
B|-----0-------0-------0-------0-----0-----0---3---------|
G|-----0-----2-------0-------0-0-----0-----0---0---------|
D|---0---0-1-----1-2-----2-3---------5-----7---0----4-0--|
A|-------------------------------3-3-3--s--6---2--2------|
E|-3-------------------------------------------3---------|

Manquerait plus que le mauvais temps s'y mette une goutte de pluie et j'aurai vraiment tout perdu 


E|-3---2---0---------------------3---2---0--------------------|
B|-5---4---1--1-1-1--------------5---4---1--------------------|
G|-4---3---2--0-0h2--------------4---3---2--------------------|
D|-5---3---2--------0h2-0--------5---3---2-------5-5h7-5------|
A|-3---2---0--------------3-2-3--3---2---0---5s7---------7-5--|
E|------------------------------------------------------------|

A la faveur de l'automne revient cette douce mélancolie. 
1, 2, 3 ,4 un peu comme on fredonne de meilleures mélodies 


E|-3---2---0---------------------3---2---0-------|
B|-5---4---1--1-1-1--------------5---4---1-------|
G|-4---3---2--0-0h2--------------4---3---2-------|
D|-5---3---2--------0h2-0--------5---3---2-------|
A|-3---2---0--------------3-2-3--3---2---0-------|
E|-----------------------------------------------|

A la faveur de l'automne tu redonnes à ma mélancolie ses couleurs de superscopie


E|---------0----------------------|
B|-2---1-0-0----------------------|
G|-0---2-0-0-----------2-------2--|
D|-0---0-0-2-----------0-------0--|
A|-x-------2---2s4-4-4-4---3-3-3--|
E|-3-3-3-3-0----------------------|

A la faveur de l'au...

E|-----------------------------------------------------|
B|-----0-------0-------0-------0-----------------------|
G|-----------2-------0-------0-------0-----------------|
D|---0---0-1-----1-2-----2-3---------5-----------------|
A|-------------------------------3-3-3--s--6---0-------|
E|-3-----------------------------------------------3---|

 

version 3 :

e -----|------------------------------------------------------------------------|
B -----|-----0---------0---------0-------0-------1-------0-------0---------0----|
G -----|-----4---------4---------4-------0-------0-----2---2-----0--------------|
D -----|---5---5-----5---5-----5---5---5---5-------2-1-----------2-0-0h2-----2/-|
A -X-X-|-7-------X-6-------X-5-------8-------3-3-------------------------0------|
E -----|-----------------------------------------------------0-0----------------|

1er couplet

e:---------------------------------------------------------------------------------------------------------------------------------
b:--------------------------------------------------------------------------------------------------------------------------------
g:-------------------------------------------------------------------4---4---4-----------4---------4----------------------------
d:-----5---5--5---5---5---5---5--5--5------2--2—2------------5------- 5-----------0---------0------------2----------2--
a:-----7------7---6--------6---5-----5------3------3-----------------------------------------------------------2----------2--
E:----------------------------------------------------------------------------------------------------------0--0------0--0-----

e:---------------------------------------------------------------------------------------------------------------------------------
b:-----------------------------------------------------------------------------------------3---------3----------------------------
g:-------------------------------------------------------------------4---4---4-----------4---------4----------------------------
d:-----5---5--5---5---5---5---5--5--5------2--2—2------------5------- 5-----------0---------0------------0--------0-----
a:-----7------7---6--------6---5-----5------3------3-----------------------------------------------------------2--------2-----
E:------------------------------------------------------------------------------------------------------------3--------3---------


Refrain 
                                                                      ]
      2xC;2x(020030);2xAm;2xEm      ]      x2
                                                                             ]


2eme couplet

E|------------------------------------------------------------------
B|-0---0---0---0---0---1---1----------------------------------------
G|-0---0---0---0---0---2---2----------------------------------2--2-
D|-0---1-1-1—--3-3-3---2-2-2----5----5-----7-----7----2-2------2--2
A| x----------------------------3—3--5-----6--6--6----2-2--0-0------
E|-3----------------------------------------------------------------


e:---------------------------------------------------------------------------------------------------------------------------------
b:-----------------------------------------------------------------------------------------3---------3----------------------------
g:-------------------------------------------------------------------4---4---4-----------4---------4----------------------------
d:-----5---5--5---5---5---5---5--5--5------2--2—2------------5------- 5-----------0---------0------------0--------0-----
a:-----7------7---6--------6---5-----5------3------3-----------------------------------------------------------2--------2-----
E:------------------------------------------------------------------------------------------------------------3--------3---------

REFRAIN

                                                                      ]
      2xC;2x(020030);2xAm;2xEm      ]      x4
                                                                             ]

E|------------|
B|-0--1--1--3-|
G|-0--0--0--0-|
D|-3--2--1--0-|
A|----------2-|
E|----------3-|


E|-------------------------------------------------------------------------
B|-----0-------0-------0-------0-------------------------------------------
G|---0-------0-------0-------0-------------------------------------2--2-
D|-------0-1-----1-2-----2-3---------5----5-----7-----7----2-2-----2--2
A|-------------------------------3-3-3—3--5-----6--6--6----2-2--0-0-----
E|-3-----------------------------------------------------------------------

3eme couplet

e:---------------------------------------------------------------------------------------------------------------------------------
b:--------------------------------------------------------------------------------------------------------------------------------
g:-------------------------------------------------------------------4---4---4-----------4---------4----------------------------
d:-----5---5--5---5---5---5---5--5--5------2--2—2------------5------- 5-----------0---------0------------2----------2--
a:-----7------7---6--------6---5-----5------3------3-----------------------------------------------------------2----------2--
E:----------------------------------------------------------------------------------------------------------0--0------0--0-----

e:---------------------------------------------------------------------------------------------------------------------------------
b:-----------------------------------------------------------------------------------------3---------3----------------------------
g:-------------------------------------------------------------------4---4---4-----------4---------4----------------------------
d:-----5---5--5---5---5---5---5--5--5------2--2—2------------5------- 5-----------0---------0------------0--------0-----
a:-----7------7---6--------6---5-----5------3------3-----------------------------------------------------------2--------2-----
E:------------------------------------------------------------------------------------------------------------3--------3---------


REFRAIN

                                                                      ]
      2xC;2x(020030);2xAm;2xEm      ]      x4
                                                                             ]

E|------------|
B|-0--1--1--3-|
G|-0--0--0--0-|
D|-3--2--1--0-|
A|----------2-|
E|----------3-|


E|-------------------------------------------------------------------------
B|-----0-------0-------0-------0-------------------------------------------
G|---0-------0-------0-------0-------------------------------------2--2-
D|-------0-1-----1-2-----2-3---------5----5-----7-----7----2-2-----2--2
A|-------------------------------3-3-3—3--5-----6--6--6----2-2--0-0-----
E|-3------------------------------------------------------------------------------------------------------------


Refrain : 
C    032010
Em/D 020030
Am   X02210
Em   022000

Paroles :

1erCOUPLET
----------
Posté devant la fenêtre, je guête les âmes esseulées, à la faveur de l'automne 
Posté devant la fenêtre, je regrette de n'y avoir songé maintenant que tu abandonnes 
REFRAIN
-------
A la faveur de l'automne revient cette douce mélancolie, 
un, deux, trois, quatre, un peu comme on freudonne de vieilles mélodies, 
2nd COUPLET
-----------
Rivé devant le téléphone j'attend que tu daignes m'appeler que tu te décides enfin 
Toi et tes allures de garçonne emprisonnent de la monotonie de mes journées de mes nuits 
REFRAIN
-------
A la faveur de l'automne revient cette douce mélancolie, 
Un, deux, trois, quatre, un peu comme on freudonne de vieilles mélodies, 
A la faveur de l'automne tu redonnes à ma mélancolie ses couleurs de superscopie, 
A la faveur de l'automne (x2) 
3eme COUPLET
------------
Comment ai-je pus seulement être aussi bête? on m'avait prévenu, voici la vérité nue,
Manquerai plus que le mauvais temps s'y mette une goutte de pluie, 
Et j'aurais vraiment tout perdu 
REFRAIN
-------
A la faveur de l'automne revient cette douce mélancolie, 
un, deux, trois, quatre, un peu comme on freudonne de vieilles mélodies, 
A la faveur de l'automne tu redonnes à ma mélancolie ses couleurs de superscopie 
A la faveur de l'automne (x2)

 

version 4:

Intro
  Em      Em7M    Em7    Em,add2b C       B7        Em 
e|---------------------------------------------------0---|
B|-----0-------0-------0------0----------------0-----0---|
G|---0-------0-------0------0----------0-----2---2---0---|
D|-2-----2-1-----1-0----0s3-----3----2---2-1---------2---|
A|---------------------------------3-----------------2---|
E|---------------------------------------------------0---|


Phrase A : | Em Em7M Em7 Em,add2b | C7 B7 Em Em |  x2
Phrase B : | C G/B Am Am |          x2  (refrain)

n'ayez pas peur de ces accords :
Em [022000]
Em7M [021000]
Em7 [020000]
Em,add2b [023000]
C [x32010]
B7 [x21202]
G/B [x2003(3)]

Em      Em7M                 Em7        Em,add2b       C           B7     Em
A- Posté devant la fenètre je guette les âmes esseulées à la faveur de l'automne.
  Posté devant la fenètre je regrette de n'y avoir songé maintenant que tu abandonnes.

C      G/B                    Am
B- A la faveur de l'automne revient cette douce mélancolie.
  1, 2, 3, 4, un peu comme on fredonne de meilleures mélodies.

A- Rivé devant le tréléphone j'attends que tu daignes m'appeler que tu te décides enfin.
  Toi tes allures de garçonne m'emprisonnent de la monotonie de mes journées de mes nuits.

B- Refrain
  A la faveur de l'automne tu redonnes à ma mélancolie 
  Ses couleurs de superscopie
  A la faveur de l'automne.

A- Comment ai-je pu seulement être aussi bête on m'avait prévenu voici la vérité nue.
  Manquerait plus qu'le mauvais temps s'y mette un goutte de pluie et j'aurais vraiment tout perdu.

B- Refrain

 

 

en espérant que ca suffise :)

Lien à poster
Partager sur d’autres sites
ben oui je crois l'avoir vu ici

 

et puis je ne frequente pas d'autres forums mon tit sunny

 

lol moi aussi je croyais qu'elle y était, on avait du fumer un cyber pet' :D

mais en fait j'ai eu beau cherché mais j'ai rien trouvé!

Lien à poster
Partager sur d’autres sites
  • 3 weeks later...

mais non il n'y a pas de questions stupides !!! ;)

 

 

 

le "s" c'est un slide, c'est à dire que tu gratte une seule fois la corde et tu glisse le doigt jusqu'a la case donnée

 

 

désolé je ne sais pas si je suis bien clair

Lien à poster
Partager sur d’autres sites
  • 4 weeks later...

H c'est pas Hammer ?

 

technique de jeu de la main gauche consistant à raccourcir une corde déjà en vibration en posant rapidement un doigt sur une case plus haute afin d'obteir une note plus aigues. On obtient ainsi un effet de « montée».
Lien à poster
Partager sur d’autres sites
  • 1 month later...
  • 1 month later...
  • 3 years later...

Veuillez vous connecter pour commenter

Vous pourrez laisser un commentaire après vous êtes connecté.



Connectez-vous maintenant
×
×
  • Créer...