Aller au contenu

[The Notting Hillbillies] Your own sweet way


Messages recommandés

your own sweet way
the notting hillbillies
INTRO:
F/Bb G/Bb Dm Dm/G
F/Bb G/Bb Dm Dm
e---------------------------
B--8--10--8--10--8--6-7-----
G---------------------------
D---------------------------
A---------------------------
E---------------------------
Dm
There is nothing I can do
Nothing I can say
You'll do what you do
Go your own sweet
    F    Bb
You'll go your own sweet
  G	 Bb
Your own sweet way
Dm
e---------------------------
B---------------------------
G-5--7-----5----------------
D------------7-6-5----5-----
A------------------8-----5--
E---------------------------
		   F    Bb
You'll go your own sweet
 G	  Bb
Your own sweet way
e------------------------------------
B--6--8--10--8--6--8--10--8--6-------
G-------------------------------7--7-
D------------------------------------
A------------------------------------
E------------------------------------
Now I can talk to you serious
I can talk to you nice
But when ot comes to love
You won't take good advice
You'll go your own sweet
Your own sweet way
Dm
e-------------------------------
B-------------------------------
G--10--9-9--7-7--5-5------------
D---------------------7-7--6--5-
A-------------------------------
E-------------------------------
You'll go your own sweet
Your own sweet way
	    Dm					 F	 Bb	 G	 Bb	 Dm
e--------------------------------------------------------------------------------
B--6-8-6-------6---8--6---5-----------------8-10-8-6-------------5-6----5--------
G---------5-7----7----------7-5-4--------------------7-7-----7--------7---5-4----
D-----------------------7---------7-5--------------------5-7---7-----------------
A-------------------------------------8-5-5--------------------------------------
E--------------------------------------------------------------------------------
   Dm		   F	    Bb	   G	    Bb	    Dm
e--------------------------------------------------------------------------------
B----------------------------------------------------10-------6------2-------2---
G-------------------------9-7------12-12-12-14-12-10----10------6------2----2----
D-7-5----------------7-10-----10-9---------------------------------------3-3-----
A-----8-7-5--------8-------------------------------------------------------------
E-----------8-7-10---------------------------------------------------------------
   Dm
e---------------------------------
B--10--8--6--8--10-----------6----
G--10--6--7--9--10---5--7--5---7--
D---------------------------------
A---------------------------------
E---------------------------------
It doesn't matter what I say
What I do or what I think
You can lead a horse to water
You can't make him drink
You'll go your own sweet
Your own sweet way
   Dm				   G
e--------------------------
B--------------------------
G--10--7--7--10--7---------
D--10--7------------10--9--
A--------------------------
E--------------------------
You'll go your own sweet
your own sweet way

 F   Bb  G  Bb	   Dm					   F	  Bb    Dm
e------------------------------------------------------------------------------
B-5-6---6-8--8-10-8--6--8-6-6--8--6---6--------8-10-8-10-8-6----8---8-10-8-6---
G-----7-----------------------------7---7-5-4-----------------7---7----------7-
D------------------------------------------------------------------------------
A------------------------------------------------------------------------------
E------------------------------------------------------------------------------
						 Gm	  Bb	 Dm				  
e------------------------------------------------------------------------------
B---------------------------8-10-8----8-6----5---------10-------8-------5------
G-----7-----7------------------------7------7-7----------10---10-10----7-7-----
D-5-7---5-7----5-7-5-7-5------------7------7-----7-8-9-----9-------8-------7---
A------------------------7-----------------------------------------------------
E------------------------------------------------------------------------------
	  Gm					  Bb			    Dm
e---------------------------------6-5-----5-3-----3-1-0------------------------
B---------8-6---8-6---8-6-------------------------------3----------------------
G-5-7-7-7-----7-----7-----7-7-5-7-----5-7-----5-7---------2-1-0---0-2-0-2-0----
D---------------------------------------------------------------3-----------3-0
A------------------------------------------------------------------------------
E------------------------------------------------------------------------------

e-----------------------------------
B-10--10--8--8--------5------5------
G-10--10--10-10------7------7-7-----
D-9---9---8--8------7------7---7----
A-----------------------------------
E-----------------------------------

 

source ABC des tablatures

 

our Own Sweet Way Chords
| F Bb | G Gm | Dm |
 Dm
There is nothing I can do
Nothing I can say
You'll do what you want to
You'll go your own sweet way
		    F   Bb
You'll go your own sweet
G   Gm		 Dm   G
Your own sweet way
		    F   Bb
You'll go your own sweet
G   Gm		 Dm
Your own sweet way
	 Dm
Now I can talk to you serious
I can talk to you nice
But when it comes to love
You won't take good advice
		    F   Bb
You'll go your own sweet
G   Gm		 Dm   G
Your own sweet way
		    F   Bb
You'll go your own sweet
G   Gm	    Dm
Your own sweet way
	   Dm
It doesn't matter what I say
What I do or what I think
You can lead a horse to water
You can't make him drink
		    F   Bb
You'll go your own sweet
G   Gm		 Dm   G
Your own sweet way
		    F   Bb
You'll go your own sweet
G   Gm		 Dm
Your own sweet way
| F Bb | G Gm | Dm | 

 

source Yours Chords

 

Lien à poster
Partager sur d’autres sites

Veuillez vous connecter pour commenter

Vous pourrez laisser un commentaire après vous êtes connecté.



Connectez-vous maintenant
×
×
  • Créer...