Aller au contenu

[The White Stripes] Seven nations army


mélody
 Share

Messages recommandés

moi je la joue comme sa:

|------------------------------------------------------------|

|------------------------------------------------------------|

|------------------------------------------------------------|

|------------------------------------------------------------|

|--7-7--10--7-------------7-7--10--7---------------------|

|-----------------10--8--7--------------10--8--10--8--7--| (corde la plus grave)

Lien vers le commentaire
Partager sur d’autres sites

  • 2 weeks later...
  • 1 month later...

Salut,

 

La fille qui joues se trompe de tonalité il me semble je te met quand même se qu'elle fait ...

 

----------------------------------------------
-----10-----10---------6--------6-------------
------9-----9----------5--------4-------------
-----11-----11---------7--------6-------------
--9------9--------5--------4------------------
----------------------------------------------

 

A mon avis il est mieux de la jouer un ton en dessus pour gardé la tonalité de la chanson original se qui donne :

 

    Em7     Em7      Cm7       B7
----------------------------------------------
------8------8---------4--------4-------------
------7------7---------3--------2-------------
------9------9---------5--------4-------------
--7------7--------3--------2------------------
----------------------------------------------

 

Voilà c'est comme ça que je vois les chose :)

Lien vers le commentaire
Partager sur d’autres sites

Merci Athena, c'est corrigé jmélange encore pas mal de choses .

 

Sinon quand je joues cette chanson pour donner ce petit effet je joues tout en accords majeur 7. c'était juste par rapport avec la vidéo que j'ai ecrit les accords de cette façon.

Lien vers le commentaire
Partager sur d’autres sites

oki mais j'ai plutot l'impression quelle le joue comme sa non??

 

 

 

Em7 Em7 Cm7 B7

----------------------------------------------

---------------------------------------------

------8------8---------4--------3-------------

------9------9---------5--------4-------------

--7------7--------3--------2------------------

----------------------------------------------

Lien vers le commentaire
Partager sur d’autres sites

ok ^^

 

    Em7     Em7      Cm7       B7 
---------------------------------------------- 
------8------8---------4--------4------------- annulaire
------7------7---------3--------2------------- majeur
------9------9---------5--------4------------- index
--7------7--------3--------2------------------  pouce
---------------------------------------------- 

 

Enfin c'est comme ça que je le joues quoi :)

Lien vers le commentaire
Partager sur d’autres sites

  • 2 months later...

Salut tlm !!

 

Est-ce que quelqu'un pourrais me donner la tablature complète de 7nation, s'il vous plait car j'ai que des morceaux, et moi je voudrais savoir joué la chanson en entier, vous comprenez......

 

La tablature pour une guitare acoustic......

 

Moi je connais le début 7--7-5-3--2...... ect.... donc s'il vous plait !!!!

 

merci beaucoup !! :D):D)

 

 

 

Sujet déplacé et fusionné par Bloody fingers.

Lien vers le commentaire
Partager sur d’autres sites

  • 8 months later...

Veuillez vous connecter pour commenter

Vous pourrez laisser un commentaire après vous êtes connecté.



Connectez-vous maintenant
 Share

×
×
  • Créer...