Aller au contenu
mélody

[The White Stripes] Seven nations army

Messages recommandés

moi je la joue comme sa:

|------------------------------------------------------------|

|------------------------------------------------------------|

|------------------------------------------------------------|

|------------------------------------------------------------|

|--7-7--10--7-------------7-7--10--7---------------------|

|-----------------10--8--7--------------10--8--10--8--7--| (corde la plus grave)

Partager ce message


Lien à poster
Partager sur d’autres sites
Merci beaucoup ! :D)

 

 

N'y a t il pas une accélération, ou un changement de cordes vers le milieu de la chanson ? ^^'

 

Si a savoir:

 

G5 et A5 en bourinant bien les croches... :p


la négociation c'est comme une partouze, c'est le plus crevé qui se fait enculer en premier

 

www.romanoloris.com un coup d'oeil les amis??? :)

Partager ce message


Lien à poster
Partager sur d’autres sites

Oked pour tout ! :D)

 

mais j'ai une sèche donc çà rend moi bien :(

 

 

signé : mushyou :zik:


Je partirais au combat si il le faut, sinon je jouerais de la guitare !

Less talk more rock

Partager ce message


Lien à poster
Partager sur d’autres sites

La version que je connais :

 

E |-7-7-10-7-5-3-2-|

 

Et sur deux cordes :

 

A |-9-9-12-9-7-5-4-|
E |-7-7-10-7-5-3-2-|

 

Après, c'est p'tet pas la version officielle, mais ça sonne bien à mon goût :siffle:


Abonné au Trocadéro :D

 

Oye como va...

Partager ce message


Lien à poster
Partager sur d’autres sites

Salut,

 

La fille qui joues se trompe de tonalité il me semble je te met quand même se qu'elle fait ...

 

----------------------------------------------
-----10-----10---------6--------6-------------
------9-----9----------5--------4-------------
-----11-----11---------7--------6-------------
--9------9--------5--------4------------------
----------------------------------------------

 

A mon avis il est mieux de la jouer un ton en dessus pour gardé la tonalité de la chanson original se qui donne :

 


    Em7     Em7      Cm7       B7
----------------------------------------------
------8------8---------4--------4-------------
------7------7---------3--------2-------------
------9------9---------5--------4-------------
--7------7--------3--------2------------------
----------------------------------------------

 

Voilà c'est comme ça que je vois les chose :)


foweargivrbanierenm-2.jpg

Partager ce message


Lien à poster
Partager sur d’autres sites

Oula tes accords sont pas justes.

 

Le x-7-9-7-8-x c'est pas un E7 c'est un Em7, le C7 c'est un Cm7 que t'as écris, mais si jme souviens bien normalement il faut jouer un C7 (ce qui donne x-3-5-3-5-x), et le B7 est bon.

Partager ce message


Lien à poster
Partager sur d’autres sites

Merci Athena, c'est corrigé jmélange encore pas mal de choses .

 

Sinon quand je joues cette chanson pour donner ce petit effet je joues tout en accords majeur 7. c'était juste par rapport avec la vidéo que j'ai ecrit les accords de cette façon.


foweargivrbanierenm-2.jpg

Partager ce message


Lien à poster
Partager sur d’autres sites

Bah dans ce cas corrige la tabs en faisant un copier coller et en modifiant, j'essaye juste d'aider j'ai pas l'oreille super entrainer non plus ça fait pas longtemps que je joues...


foweargivrbanierenm-2.jpg

Partager ce message


Lien à poster
Partager sur d’autres sites

oki mais j'ai plutot l'impression quelle le joue comme sa non??

 

 

 

Em7 Em7 Cm7 B7

----------------------------------------------

---------------------------------------------

------8------8---------4--------3-------------

------9------9---------5--------4-------------

--7------7--------3--------2------------------

----------------------------------------------

Partager ce message


Lien à poster
Partager sur d’autres sites

ok ^^

 


    Em7     Em7      Cm7       B7 
---------------------------------------------- 
------8------8---------4--------4------------- annulaire
------7------7---------3--------2------------- majeur
------9------9---------5--------4------------- index
--7------7--------3--------2------------------  pouce
---------------------------------------------- 

 

Enfin c'est comme ça que je le joues quoi :)


foweargivrbanierenm-2.jpg

Partager ce message


Lien à poster
Partager sur d’autres sites

Salut tlm !!

 

Est-ce que quelqu'un pourrais me donner la tablature complète de 7nation, s'il vous plait car j'ai que des morceaux, et moi je voudrais savoir joué la chanson en entier, vous comprenez......

 

La tablature pour une guitare acoustic......

 

Moi je connais le début 7--7-5-3--2...... ect.... donc s'il vous plait !!!!

 

merci beaucoup !! :D):D)

 

 

 

Sujet déplacé et fusionné par Bloody fingers.

Partager ce message


Lien à poster
Partager sur d’autres sites

Veuillez vous connecter pour commenter

Vous pourrez laisser un commentaire après vous êtes connecté.



Connectez-vous maintenant

×
×
  • Créer...