Aller au contenu

[Thème] Le Parrain


Messages recommandés

Bonjour a tous j'ai trouver le théme du Parrain ( Version Acoustique bien sur ) et je vous la proposes :)

- - - - - - - - - - - - - - - - - - - - - - - -
- - - - - - - - - - - - - - - - - - - - - - - -
- -0-3 2 0-3-0-2- - - - - - - - - - - - - - - -
-0- - - - - - - - -1-3-0- - - - - - - - - - - -
- - - - - - - - - - - - - - - - - - - - - - - -
- - - - - - - - - - - - - - - - - - - - - - - - 


- - - - - - - - - - - - - - - - - - - - - - - -
- -0-3-2-0-3-0-2- - - - - - - - - - - - - - - -
-0- - - - - - - - - -1-0- - -3- - -2 - - - - - -
- - - - - - - - - - - - - - -0- - -0 - - - - - -
- - - - - - - - - - - - - -3- - -2 - - - - - - -
- - - - - - - - - - - - - - - - - - - - - - - -

 

Voila j'esperes que celle ci voud plaira tant par sa facilité que pour sa qualité.

Lien à poster
Partager sur d’autres sites

il y a aussi ça

|-------10--13--12--10--13--10--10/12--10--------------------------|
|---10-----------------------------------------11--13--10----------|
|------------------------------------------------------------------|
|------------------------------------------------------------------|
|------------------------------------------------------------------|
|------------------------------------------------------------------|

|-------10--13--12--10--13--10--12--10----------------------------|
|---10---------------------------------------8/10--9--8------------|
|------------------------------------------------------------------|
|------------------------------------------------------------------|
|------------------------------------------------------------------|
|------------------------------------------------------------------|

|-------6--9--9/12---6--9--9/10-------------------------------------------|
|--6/8-------------8--------------10--1110--11/13--10--11--10------------|
|--------------------------------------------------------------9h10--6--7-|
|-------------------------------------------------------------------------|
|-------------------------------------------------------------------------|
|-------------------------------------------------------------------------|

Lien à poster
Partager sur d’autres sites
  • 4 weeks later...
  • 3 months later...

perso moi j'ai ça en version un peu plus longue

 

 


- - - - - - - - - - - - - - - - - - - - - - - - - - - - - - - - - - - - - - - - -
- - - - - - - - - - - - - - - - - - - - - - - - - - - - - - - - - - - - - - - - -
- -0-3 2 0-3-0-2- - - - - - - - 0-3 2 0-3-0-2 - - - - - - -  0-2- - - - - - - - 0 
-0- - - - - - - - -1-3-0- - - -0- - -  - - - - 0 - - - -  1 - - - - - - -1- 4 - - 
- - - - - - - - - - - - - - - - - - - - - - - - -  4-3 -3  - - -  - - 3- - - - - -
- - - - - - - - - - - - - - - - - - - - - - - - - - - - - - - - - - - - - - - - - 

- - - - - -  - - - - - - - - - - - - - - - - - - - - - - - - - - - -
- - - - -  - - - - - - - - - - - - - - - - - - - - - - - - - - - - -
- - - - -  - - - - - - - - - - 0-0 - - 2 0 - - - - - - - - - - - - -
- - 0-3-1-0-3-1-1-0 - - - - - - - 4-3- - - - 1 0 - - 0 3 - 1 - 1 - -
- 1 - - -  - - - - - 0-1 - - - - - - - - - - - - - - - - - 3 3 - 4 5
- - - - -  - - - - - - - - 3 - - - - - - - - - - - - - - - - - - - -

Lien à poster
Partager sur d’autres sites
  • 3 months later...
  • 1 month later...

Donc voila la version Slash, mais après pour le solo :) Improvisez gamme bluesy sa ira :)

 

ê-------------------------------|---------------------------------------|
ê-15----14-15-16-15-15----------|--15---14-15-16-15-15------------------|
ê-----------------------15~~~~-|----------------------14~~~~----------|
ê-------------------------------|---------------------------------------|
ê-------------------------------|---------------------------------------|
ê-------------------------------|---------------------------------------|

                          BR                   BR
ê-------------13----------------|---------------------------------------|
ê-15~~~-14-15----15-14-----15---|---------------14----------------------|
ê-------------------------------|--15--14--15----------14~~~~~---------|
ê-------------------------------|---------------------------------------|
ê-------------------------------|---------------------------------------|
ê-------------------------------|---------------------------------------|

Drums (cymbal) & Piano In
ê-------13-12----13----12----------------|--------13-12----13----12-----
ê----15-------15----15----15----13-------|-----15-------15----15----15--
ê-14-------------------------15----14~~~-|--14--------------------------
ê----------------------------------------|------------------------------
ê----------------------------------------|------------------------------
ê----------------------------------------|------------------------------


------------------½
-12-/-14-13-12~~~~½
------------------½
------------------½
------------------½
------------------½

     BR                              BR          
ê---------------------------------------------------------------------|
ê-----15---------14-15~~~~--------------------------------------------|
ê---x------14-15-------------14-15-14--15--14~~-15--14----------------|
ê-x-----------------------------------------------------15--11--12----|
ê---------------------------------------------------------------------|
ê---------------------------------------------------------------------|

Main Riff (Full Drums In)
                        BR   B     BR        BR        BR BR BR BR BR
ç----------------12---------------------------------------------------|
ç-15--15--14--13-----13--10----9----9----8----10---8----10------------|
ç---------------------------------------------------------------------|
ç---------------------------------------------------------------------|
ç---------------------------------------------------------------------|
ç---------------------------------------------------------------------|

                                  H     P                                                 H          P
ê---------13--12-13-12--------13-12----12------------------------|
ê------15--------------15-13--------15----15-13-15----13---------|
ê-/14----------------------------------------------15----14~~~~~-|
ê----------------------------------------------------------------|
ê----------------------------------------------------------------|
ê----------------------------------------------------------------|






         H    P
ê-------13-12-13-12-------12-13----12------------------------|
ê----15-------------15-13-------15-----13--15----------------|
ê-14--------------------------------------------/14-13-12~~~-|
ê------------------------------------------------------------|
ê------------------------------------------------------------|
ê------------------------------------------------------------|

     BR                         BR       
ê----------------------------------------------------------------|
ê-----15---------------------------------------------------------|
ê---x--------------14-15-----------------------------------------|
ê-x-------/12---15-------14-15-14-15-----14----------------------|
ê----------------------------------------------12/15~~~~~~~~~~~--|
ê----------------------------------------------------------------|


ê----------------------------------------------------------------|
ê----------------------------------------------------------------|
ê----------------------------------------------------------------|
ê-11~~~~~~~~~~~~~~---------12~~~~~~~~~~~~~~~--------------------|
ê----------------------------------------------------------------|
ê----------------------------------------------------------------|

For Slash Tone on this song Switch Wah-Wah pedal on and clock it in 
the bass position with distortion on.

If you don't have Wah-Wah pedal turn tone down on the guitar.


~  = Vibrato
 = Slide Down
/  = Slide Up
BR = Bend and Release
B  = Bend
H  = Hammer on
P  = Pull off

Lien à poster
Partager sur d’autres sites
  • 4 months later...

Voilà une version acoustique, très belle aussi ;)

|------------|---0-3-0-2-0-----|------------------|
|--------5-8-|-7-------1---1-3-|-0-------0---5-8--|
|------4-----|---------2-------|---0---0---4------|
|------------|-----------------|-----2------------|
|------------|-----------------|------------------|
|------------|-0-------0-------|-0----------------|


|---0-3-0-2-0-----|-----------------|-----------------|----------0-------|
|-7-------0---0---|---------------4-|-7-------7-------|---0----0-------3-|
|---------0-----0-|-2---------2s5---|---5---5-----5s8-|-9------------0---|
|-----------------|---2---2---------|-----7-----7-----|------------2-----|
|-----------------|-0---3---0-------|-0---------------|-----10-----------|
|-0-------3-------|-----------------|-----------------|-0----------------|


|-----------------|------------------------|-------0-2-0h2p0------|
|-1-0-3-1-1-0-0---|-----------4b5-4pb5r(4)-|-3---------------1----|
|---------2-------|------------------------|---5---------------2--|
|---------------1-|-2----------------------|-----4---0------------|
|-2-------2-------|---2---2----------------|-5--------------------|
|-----------------|-0---3---0--------------|----------------------|


|-----------------|-----------------|-----------------|
|-0-------0-0-3-0-|-------------1---|-------------5-8-|
|---0---0---------|-2-------2-2---3-|-4---------4-----|
|-----0-----------|---3---3---------|---4---4---------|
|-----------------|-----3-----------|-----6-----------|
|-3---------------|-1---------------|---------7-------|


|---0-3-0-2-0-----|-----------------|---0-3-0-2-0-----|-----------------|
|-7-------1---1-3-|-0-------0---5-8-|-7-------0---0---|---------------4-|
|---------2-------|---0---0---4-----|---------0-----0-|-2---------2-5---|
|-----------------|-----2-----------|-----------------|---2---2---------|
|-----------------|-----------------|-----------------|-0---3---0-------|
|-0-------0-------|-0---------------|-0-------3-------|-----------------|


|---------------------|---------0-------|
|-7-------7-7-(7)b8-4-|-5-------------3-|
|---5---5-------------|---4---4-----0---|
|-----7---------------|-----5-----2-----|
|-0-------------------|-----------------|
|---------------------|-0---------------|


|-----------------|--------------------*|
|-1-0-3-1-1-0-0---|--------------------*|
|---------2-------|--------------------*|
|---------------1-|-2------------------*|
|-2-------2-------|---2---2---(2)--(2)-*|
|-----------------|-0---3---0----------*|

Lien à poster
Partager sur d’autres sites
  • 5 months later...

alors...

le p tout d'abord...

c'est une erreur xD

 

Ensuite...

le b, bend, comme avant, et le r c'est "release", c'est un bend-release en somme :p

c'est à dire concrètement, tu te place en 4, tu bend la corde pour arriver au son de la case 5, et tu reviens ensuite au son "normal" de la case 4.

En gros c'est un bend en aller-retour ;)

Am I clear or not? :p

Lien à poster
Partager sur d’autres sites
  • 3 weeks later...

> Béhèf (et tout ceux que ca interesse )

 

Le pré-Bend : il s'agit de tirer la note sans la jouer et de faire sonner seulement le release-bend....

 

Edit : Au début, j'ai lu que c'était un morceau facile ! en impro, il est pas si simple que ça ! ca module pas mal quand même !! mais super sympa....

Lien à poster
Partager sur d’autres sites
  • 1 year later...
  • 5 years later...

Veuillez vous connecter pour commenter

Vous pourrez laisser un commentaire après vous êtes connecté.



Connectez-vous maintenant
×
×
  • Créer...