Aller au contenu
petite-guitare

[Tokio Hotel] Durch den monsoon

Messages recommandés

voila quelqu'un aurait la tablature de [ Tokio Hotel ] Durch den monsoon

svp ??

mercii d'avance

 

:guitare:


Guitare Guitar Gitarre Guitarra Chitarra Guitaar гитара κιθάρα 기타

I love :guitare: 4ever

Partager ce message


Lien à poster
Partager sur d’autres sites
[intro]
e|000-000-0-000-000-0-----------------------------------------------|
b|000-000-0-111-111-1-----------------------------------------------|
g|111-222-1-000-000-0-----------------------------------------------|
d|222-222-2-222-333-2-----------------------------------------------|
a|222-222-2-333-333-3-----------------------------------------------|
e|000-000-0---------------------------------------------------------|

[Verse] "Das Fenster öffnet sich nich mehr..."
e|000-000-0-000-000-0-----------------------------------------------|
b|000-000-0-111-111-1-----------------------------------------------|
g|111-222-1-000-000-0-----X3----------------------------------------|
d|222-222-2-222-333-2----------7777777-5555555----------------------|
a|222-222-2-333-333-3----------7777777-5555555----------------------|
e|000-000-0--------------------5555555-3333333----------------------|

"Ich warte schon ne ewigkeit... "
e|000-000-0-000-000-0-----------------------------------------------|
b|000-000-0-111-111-1-----------------------------------------------|
g|111-222-1-000-000-0-----X3----------------------------------------|
d|222-222-2-222-333-2----------7777777-5555555----------------------|
a|222-222-2-333-333-3----------7777777-5555555----------------------|
e|000-000-0--------------------5555555-3333333----------------------|

[Chorus]
Guitar 1: "Ich muss durch den Monsun..."
e|------------------------------------------------------------------|
b|------------------------------------------------------------------|
g|555-555-5-777-777-7-999-999-9-777-777-7---------------------------|
d|555-555-5-777-777-7-999-999-9-777-777-7---------------------------|
a|333-333-3-555-555-5-777-777-7-555-555-5---------------------------|
e|------------------------------------------------------------------|

"gegen den sturm..."
e|------------------------------------------------------------------|
b|------------------------------------------------------------------|
g|555-555-5-777-777-7-444-444-4-999-999-9---------------------------|
d|555-555-5-777-777-7-444-444-4-999-999-9---------------------------|
a|333-333-3-555-555-5-222-222-2-777-777-7---------------------------|
e|------------------------------------------------------------------|

"Irgendwann laufen wir zusamm'..."
e|------------------------------------------------------------------|
b|------------------------------------------------------------------|
g|555-555-5-7~------------------------------------------------------|
d|555-555-5-7~------------------------------------------------------|
a|333-333-3-5~------------------------------------------------------|
e|------------------------------------------------------------------|

Guitar 2: "Ich muss durch den monsun..." (baseclly all chorus long)
e|----------------------------------------7-77----------------------|
b|8-88-7-77-8-88-7-77-8-88-7-77-7-77-7-88------87~------------------|
g|------------------------------------------------------------------|
d|------------------------------------------------------------------|
a|------------------------------------------------------------------|
e|------------------------------------------------------------------|

[Pre Verse:]
Guitar 1: "durch den monsun dann wird alles gut..."
e|000-000-0-000-000-0-----------------------------------------------|
b|000-000-0-111-111-1-----------------------------------------------|
g|111-222-1-000-000-0-----------------------------------------------|
d|222-222-2-222-333-2-----------------------------------------------| X2
a|222-222-2-333-333-3-----------------------------------------------|
e|000-000-0---------------------------------------------------------|

Guitar 2:"durch den monsun dann wird alles gut..."
e|12-14----12-------------------------------------------------------|
b|------13----------------------------------------------------------|
g|------------------------------------------------------------------|
d|------------------------------------------------------------------| X2
a|------------------------------------------------------------------|
e|------------------------------------------------------------------|

[Verse]
Guitar 1: "Ein halber Mond versinkt vor mir..."
e|000-000-0-000-000-0-----------------------------------------------|
b|000-000-0-111-111-1-----------------------------------------------|
g|111-222-1-000-000-0-----X3----------------------------------------|
d|222-222-2-222-333-2----------7777777-5555555----------------------|
a|222-222-2-333-333-3----------7777777-5555555----------------------|
e|000-000-0--------------------5555555-3333333----------------------|

"Ich weiss dass ich dich ..."
e|000-000-0-000-000-0-----------------------------------------------|
b|000-000-0-111-111-1-----------------------------------------------|
g|111-222-1-000-000-0-----X3----------------------------------------|
d|222-222-2-222-333-2----------7777777-5555555----------------------|
a|222-222-2-333-333-3----------7777777-5555555----------------------|
e|000-000-0--------------------5555555-3333333----------------------|

Guitar 2: "Ich weiss dass ich dich..." (baseclly comes at the 2nd part of the 2nd verse)
e|------------------------------------------------------------------|
b|------------------------------------------------------------------|
g|999999999999999999999999-7777-6666--------------------------------|
d|------------------------------------------------------------------|
a|------------------------------------------------------------------|
e|------------------------------------------------------------------|

[Chorus]
Guitar 1: "Ich muss durch den Monsun..."
e|------------------------------------------------------------------|
b|------------------------------------------------------------------|
g|555-555-5-777-777-7-999-999-9-777-777-7---------------------------|
d|555-555-5-777-777-7-999-999-9-777-777-7---------------------------|
a|333-333-3-555-555-5-777-777-7-555-555-5---------------------------|
e|------------------------------------------------------------------|

"gegen den sturm..."
e|------------------------------------------------------------------|
b|------------------------------------------------------------------|
g|555-555-5-777-777-7-444-444-4-999-999-9---------------------------|
d|555-555-5-777-777-7-444-444-4-999-999-9---------------------------|
a|333-333-3-555-555-5-222-222-2-777-777-7---------------------------|
e|------------------------------------------------------------------|

"Irgendwann laufen wir zusamm'..."
e|------------------------------------------------------------------|
b|------------------------------------------------------------------|
g|555-555-5-777-777-7-999-999-9-777-777-7---------------------------|
d|555-555-5-777-777-7-999-999-9-777-777-7---------------------------|
a|333-333-3-555-555-5-777-777-7-555-555-5---------------------------|
e|------------------------------------------------------------------|

"Durch den monsun..."
e|------------------------------------------------------------------|
b|------------------------------------------------------------------|
g|555-555-5-777-777-7-----------------------------------------------|
d|555-555-5-777-777-7-----------------------------------------------|
a|333-333-3-555-555-5-----------------------------------------------|
e|------------------------------------------------------------------|

Guitar 2: "Ich muss durch den monsun..."
e|----------------------------------------7-77-----------------------|
b|8-88-7-77-8-88-7-77-8-88-7-77-7-77-7-88------87--------------------|
g|-------------------------------------------------------------------|
d|-------------------------------------------------------------------|
a|-------------------------------------------------------------------|
e|-------------------------------------------------------------------|

"Weil uns einfach nichts mehr..."
e|------------------------------------------------------------------|
b|7-77-8-88-7-77-8-88-----------------------------------------------|
g|------------------------------------------------------------------|
d|------------------------------------------------------------------|
a|------------------------------------------------------------------|
e|------------------------------------------------------------------|

[Verse 3]
Guitar 1: "Ich kaempf' mich..."
e|------------------------------------------|-----------------------|
b|------------------------------------------|-----------------------|
g|444-444-4-----------444-444-4-------------|------4~---------------|
d|444-444-4-333-333-3-444-444-4-333-333-3---|X3----4~---------------|
a|222-222-2-333-333-3-222-222-2-333-111-3---|------2~---------------|
e|----------111-111-1-----------111-111-1---|-----------------------|

Guitar 2:
e|------------------------------------------------------------------|
b|------------------------------------------------------------------|
g|------------------------------------------------------------------|
d|777--66666-222-33333----------------------------------------------| X3
a|------------------------------------------------------------------|
e|------------------------------------------------------------------|

Guitar 2: (continue after guitar one finishes, guitar 2 plays solo)
e|12-14----12----|-------12~~~--------------------------------------|
b|------13-------|--------------------------------------------------|
g|---------------|--------------------------------------------------|
d|---------------|X3------------------------------------------------|
a|---------------|--------------------------------------------------|
e|---------------|--------------------------------------------------|

[Chorus]
Guitar 1: "Ich muss durch den Monsun..."
e|------------------------------------------------------------------|
b|------------------------------------------------------------------|
g|555-555-5-777-777-7-999-999-9-777-777-7---------------------------|
d|555-555-5-777-777-7-999-999-9-777-777-7---------------------------|
a|333-333-3-555-555-5-777-777-7-555-555-5---------------------------|
e|------------------------------------------------------------------|

"gegen den sturm..."
e|------------------------------------------------------------------|
b|------------------------------------------------------------------|
g|555-555-5-777-777-7-444-444-4-999-999-9---------------------------|
d|555-555-5-777-777-7-444-444-4-999-999-9---------------------------|
a|333-333-3-555-555-5-222-222-2-777-777-7---------------------------|
e|------------------------------------------------------------------|

"Irgendwann laufen wir zusamm'..."
e|------------------------------------------------------------------|
b|------------------------------------------------------------------|
g|555-555-5-777-777-7-999-999-9-777-777-7---------------------------|
d|555-555-5-777-777-7-999-999-9-777-777-7---------------------------|
a|333-333-3-555-555-5-777-777-7-555-555-5---------------------------|
e|------------------------------------------------------------------|

"Durch den monsun..."
e|------------------------------------------------------------------|
b|------------------------------------------------------------------|
g|555-555-5-777-777-7-----------------------------------------------|
d|555-555-5-777-777-7-----------------------------------------------|
a|333-333-3-555-555-5-----------------------------------------------|
e|------------------------------------------------------------------|

Guitar 2: "Ich muss durch den monsun..."
e|----------------------------------------7-77-----------------------|
b|8-88-7-77-8-88-7-77-8-88-7-77-7-77-7-88------87--------------------|
g|-------------------------------------------------------------------|
d|-------------------------------------------------------------------|
a|-------------------------------------------------------------------|
e|-------------------------------------------------------------------|

"Weil uns einfach nichts mehr..."
e|------------------------------------------------------------------|
b|7-77-8-88-7-77-8-88-----------------------------------------------|
g|------------------------------------------------------------------|
d|------------------------------------------------------------------|
a|------------------------------------------------------------------|
e|------------------------------------------------------------------|

[Outo]
Guitar 1:
e|------------------------------------------------------------------|
b|------------------------------------------------------------------|
g|999-999-9-555-555-5-999-999-9-555-555-5---------------------------|
d|999-999-9-555-555-5-999-999-9-555-555-5---------------------------| X4
a|777-777-7-333-333-3-777-777-7-333-333-3---------------------------|
e|------------------------------------------------------------------|

Guitar 2:
e|------------------------------------------------------------------|
b|------------------------------------------------------------------|
g|------------------------------------------------------------------|
d|666-7-9-222-3-2---------------------------------------------------| X4
a|------------------------------------------------------------------|
e|------------------------------------------------------------------|

Guitar 1: End
e|------------------------------------------------------------------|
b|------------------------------------------------------------------|
g|77-7-7-9----------------------------------------------------------|
d|77-7-7-9----------------------------------------------------------|
a|55-5-5-7----------------------------------------------------------|
e|------------------------------------------------------------------|


If Slash's guitar could speak she'd say "I fuckin love you !"

 

Vous aimez Tabs4Acoustic.com ? Aidez-nous !

Devenez fan sur Facebook, suivez-nous sur Twitter, abonnez-vous sur Youtube, devenez supporter

 

t4a_userbar4.png

Partager ce message


Lien à poster
Partager sur d’autres sites

aaaaaah merde j'vien de me prendre la tete a faire une tab pour rien :D:D:D

Bon c'est pas grave , je la post quand meme , comme ca tu aura le choix ;)

partie clean

E||------------------------|-----------------------|-----------------------|
B||------------------------|-----------------------|-----------------------|
G||*-1----1--2----2--1-----|-----------------------|--1----1--2----2--1----|
D||*-2----2--2----2--2-----|--2----2--3----3--2----|--2----2--2----2--2----|
A||--2----2--2----2--2-----|--3----3--3----3--3----|--2----2--2----2--2----|
E||------------------------|--3----3--3----3--3----|-----------------------|



-----------------------|-----------------------|-----------------------|
-----------------------|-----------------------|-----------------------|
-----------------------|--1----1--2----2--1----|-----------------------|
--2----2--3----3--2----|--2----2--2----2--2----|--2----2--3----3--2----|
--3----3--3----3--3----|--2----2--2----2--2----|--3----3--3----3--3----|
--3----3--3----3--3----|-----------------------|--3----3--3----3--3----|



-----------------------|-----------------------|-----------------------|
-----------------------|-----------------------|-----------------------|
--1----1--2----2--1----|-----------------------|-----------------------|
--2----2--2----2--2----|--2----2--3----3--2----|--7----7--7----7--7----|
--2----2--2----2--2----|--3----3--3----3--3----|--7----7--7----7--7----|
-----------------------|--3----3--3----3--3----|--5----5--5----5--5----|



-----------------------|------------------------|-----------------------|
-----------------------|------------------------|-----------------------|
--0----0--0----0--0----|--1----1--2----2--1-----|-----------------------|
--0----0--0----0--0----|--2----2--2----2--2-----|--2----2--3----3--2----|
--2----2--2----2--2----|--2----2--2----2--2-----|--3----3--3----3--3----|
--3----3--3----3--3----|------------------------|--3----3--3----3--3----|



------------------------|-----------------------|------------------------|
------------------------|-----------------------|------------------------|
--1----1--2----2--1-----|-----------------------|--1----1--2----2--1-----|
--2----2--2----2--2-----|--2----2--3----3--2----|--2----2--2----2--2-----|
--2----2--2----2--2-----|--3----3--3----3--3----|--2----2--2----2--2-----|
------------------------|--3----3--3----3--3----|------------------------|



-----------------------|-----------------------|-----------------------|
-----------------------|-----------------------|-----------------------|
-----------------------|-----------------------|--0----0--0----0--0----|
--2----2--3----3--2----|--7----7--7----7--7----|--0----0--0----0--0----|
--3----3--3----3--3----|--7----7--7----7--7----|--2----2--2----2--2----|
--3----3--3----3--3----|--5----5--5----5--5----|--3----3--3----3--3----|



--3--------3--------3-----|--2--------2--------2-----|
-----5--------5--------5--|-----3--------3--------3--|
--------5--------5--------|--------2--------2--------|
--------------------------|--------------------------|
--------------------------|--------------------------|
--------------------------|--------------------------|



--3--------3--------3-----|--------------------------|
-----5--------5--------5--|--7--------7--------7-----|
--------4--------4--------|-----7--------7--------7--|
--------------------------|--------9--------9--------|
--------------------------|--------------------------|
--------------------------|--------------------------|



--3--------3--------3-----|--2--------2--------2-----|
-----5--------5--------5--|-----3--------3--------3--|
--------5--------5--------|--------2--------2--------|
--------------------------|--------------------------|
--------------------------|--------------------------|
--------------------------|--------------------------|



--------------------------|--3--------3--------3-----|
--7--------7--------7-----|-----5--------5--------5--|
-----7--------7--------7--|--------4--------4--------|
--------9--------9--------|--------------------------|
--------------------------|--------------------------|
--------------------------|--------------------------|


                       X2
--3--------3--------3-----|
-----5--------5--------5--|
--------5--------5-------*|
-------------------------*|
--------------------------|
--------------------------|





Partie heu...pas clean mdr
on va dire "Drive"

|--------------------------|
|--------------------------|
|--------------------------|
|--7--7--7--6--6--6--x--x--|
|--7--7--7--7--7--7--x--x--|
|--------------------------|



--------------------------|--------------------------|
--------------------------|--------------------------|
--------------------------|--------------------------|
--3--3--3--2--2--2--x--x--|--7--7--7--6--6--6--x--x--|
--3--3--3--3--3--3--x--x--|--7--7--7--7--7--7--x--x--|
--------------------------|--------------------------|



--------------------------|--------------------------|
--------------------------|--------------------------|
--------------------------|--------------------------|
--3--3--3--2--2--2--x--x--|--7--7--7--6--6--6--x--x--|
--3--3--3--3--3--3--x--x--|--7--7--7--7--7--7--x--x--|
--------------------------|--------------------------|



--------------------------|--------------------------|
--------------------------|--------------------------|
--------------------------|--------------------------|
--3--3--3--2--2--2--x--x--|--7--7--7--6--6--6--x--x--|
--3--3--3--3--3--3--x--x--|--7--7--7--7--7--7--x--x--|
--------------------------|--------------------------|



--------------------------|--------------------------|
--------------------------|--------------------------|
--------------------------|--------------------------|
--3--3--3--2--2--2--x--x--|--7--7--7--6--6--6--x--x--|
--3--3--3--3--3--3--x--x--|--7--7--7--7--7--7--x--x--|
--------------------------|--------------------------|



--------------------------|--------------------------|
--------------------------|--------------------------|
--------------------------|--------------------------|
--3--3--3--2--2--2--x--x--|--7--7--7--6--6--6--x--x--|
--3--3--3--3--3--3--x--x--|--7--7--7--7--7--7--x--x--|
--------------------------|--------------------------|



--------------------------|----------------------|
--------------------------|----------------------|
--------------------------|----------------------|
--3--3--3--2--2--2--x--x--|--2-------------------|
--3--3--3--3--3--3--x--x--|--2-------------------|
--------------------------|--0-------------------|





Clean

----------------------|------------------------|----------------------|
----------------------|------------------------|----------------------|
--1-------------------|--1----1--2----2--1-----|----------------------|
--2-------------------|--2----2--2----2--2-----|--2-------------------|
--2-------------------|--2----2--2----2--2-----|--3-------------------|
----------------------|------------------------|--3-------------------|



------------------------|----------------------|------------------------|
------------------------|----------------------|------------------------|
--1----1--2----2--1-----|----------------------|--1----1--2----2--1-----|
--2----2--2----2--2-----|--2-------------------|--2----2--2----2--2-----|
--2----2--2----2--2-----|--3-------------------|--2----2--2----2--2S----|
------------------------|--3-------------------|------------------------|



----------------------|----------------------|----------------------|
----------------------|----------------------|----------------------|
----------------------|--1-------------------|----------------------|
--2-------------------|--2-------------------|----------------------|
--3-------------------|--2-------------------|----------------------|
--3-------------------|----------------------|----------------------|





Drive (fin)

-------------------|--------------------------|--------------------------|
-------------------|--------------------------|--------------------------|
-------------------|--5--5--5--5--5--5--5--5--|--7--7--7--7--7--7--7--7--|
-------------------|--5--5--5--5--5--5--5--5--|--7--7--7--7--7--7--7--7--|
-------------------|--3--3--3--3--3--3--3--3--|--5--5--5--5--5--5--5--5--|
-------------------|--------------------------|--------------------------|



--------------------------|--------------------------|
--------------------------|--------------------------|
--9--9--9--9--9--9--9--9--|--------------------------|
--9--9--9--9--9--9--9--9--|--9--9--9--9--9--9--9--9--|
--7--7--7--7--7--7--7--7--|--9--9--9--9--9--9--9--9--|
--------------------------|--7--7--7--7--7--7--7--7--|



--------------------------|--------------------------|
--------------------------|--------------------------|
--5--5--5--5--5--5--5--5--|--7--7--7--7--7--7--7--7--|
--5--5--5--5--5--5--5--5--|--7--7--7--7--7--7--7--7--|
--3--3--3--3--3--3--3--3--|--5--5--5--5--5--5--5--5--|
--------------------------|--------------------------|



--------------------------|--------------------------|
--------------------------|--------------------------|
--------------------------|--9--9--9--9--9--9--9--9--|
--9--9--9--9--9--9--9--9--|--9--9--9--9--9--9--9--9--|
--9--9--9--9--9--9--9--9--|--7--7--7--7--7--7--7--7--|
--7--7--7--7--7--7--7--7--|--------------------------|



--------------------------|--------------------------|
--------------------------|--------------------------|
--5--5--5--5--5--5--5--5--|--7--7--7--7--7--7--7--7--|
--5--5--5--5--5--5--5--5--|--7--7--7--7--7--7--7--7--|
--3--3--3--3--3--3--3--3--|--5--5--5--5--5--5--5--5--|
--------------------------|--------------------------|



--------------------------|--------------------------|
--------------------------|--------------------------|
--9--9--9--9--9--9--9--9--|--------------------------|
--9--9--9--9--9--9--9--9--|--9--9--9--9--9--9--9--9--|
--7--7--7--7--7--7--7--7--|--9--9--9--9--9--9--9--9--|
--------------------------|--7--7--7--7--7--7--7--7--|



--------------------------|--------------------------|------------------------|
--------------------------|--------------------------|------------------------|
--5--5--5--5--5--5--5--5--|--7--7--7--7--7--7--7--7--|--1----1--2----2--1-----|
--5--5--5--5--5--5--5--5--|--7--7--7--7--7--7--7--7--|--2----2--2----2--2-----|
--3--3--3--3--3--3--3--3--|--5--5--5--5--5--5--5--5--|--2----2--2----2--2S----|
--------------------------|--------------------------|------------------------|



-----------------------|------------------------|-----------------------|
-----------------------|------------------------|-----------------------|
-----------------------|--1----1--2----2--1-----|-----------------------|
--2----2--3----3--2----|--2----2--2----2--2-----|--2----2--3----3--2----|
--3----3--3----3--3----|--2----2--2----2--2S----|--3----3--3----3--3----|
--3----3--3----3--3----|------------------------|--3----3--3----3--3----|



------------------------|-----------------------|------------------------|
------------------------|-----------------------|------------------------|
--1----1--2----2--1-----|-----------------------|--1----1--2----2--1-----|
--2----2--2----2--2-----|--2----2--3----3--2----|--2----2--2----2--2-----|
--2----2--2----2--2S----|--3----3--3----3--3----|--2----2--2----2--2S----|
------------------------|--3----3--3----3--3----|------------------------|



--------------------------||
--0--0--------------0-----||
--0--0--------------0-----||
--2--2-----2-----2--2-----||
--3--3-----3-----3--3-----||
--------------------------||

Partager ce message


Lien à poster
Partager sur d’autres sites

mercii tout le monde :D)


Guitare Guitar Gitarre Guitarra Chitarra Guitaar гитара κιθάρα 기타

I love :guitare: 4ever

Partager ce message


Lien à poster
Partager sur d’autres sites

ho mon dieu il y a encore des fans de ce soit disant groupe ?


sanstitre2dddtz3.png

 

Le mal triomphe par l'inaction des gens de biens

Partager ce message


Lien à poster
Partager sur d’autres sites
un truc comme ça a rien a faire sur ce forum respectable!!!!

 

Un commentaire comme ca non plus ...

 

pas mieux :D d'ailleurs le forum serait d'autant plus respectable, si les membres se respectaient déjà entre eux


Sa Grandeur, le Vicompte du Domaine Floodesque

Jam en ligne !! <---

Partager ce message


Lien à poster
Partager sur d’autres sites

moi jai la version englais

vas sur youube est tu mai tutorial-tokio hotel-monsoon-tabs lyrics

et tu aura tous les acord

Partager ce message


Lien à poster
Partager sur d’autres sites

Veuillez vous connecter pour commenter

Vous pourrez laisser un commentaire après vous êtes connecté.



Connectez-vous maintenant

×
×
  • Créer...