Aller au contenu

[Tryo] C'est du roots


Messages recommandés

Tryo C'est du roots


Intro a jouer 8fois

e | --------9--------------------------- | -------9--------------------- |
b | ----------9------------------------- | --------9-------------------- |
g | -----7--------------9---5----7----   | ---7-------9--9--7--5--7----- |
d | -------------8--8------------------  | ----------------------------- |
a | ------------------------------------ | ----------------------------- |
e | ------------------------------------ | ----------------------------- |


pour la derniere fois jouer

e | --------9--------------------------- | -------9------------------------ |
b | ----------9------------------------- | --------9----------------------- |
g | -----7--------------9---5----7----   | ---7-------9--9--7--5--5--6----- |
d | -------------8--8------------------  | -------------------------------- |
a | ------------------------------------ | -------------------------------- |
e | ------------------------------------ | -------------------------------- |


D
Kif a donf raggamuffin ruba dub
G
Style et ses ridims
D
Inspire par tant de couleurs
A
Je m'imagine
D
Une vie stylee pour tous les
G
Frerots et frangines
D
Qui ont tellement evolues
A
Et ont oublie leurs racines
G
C'est peut-etre pas une solution
A
mais je crois savoir ce qu'il nous faut
Nous faut ?
G
C'est peut-etre pas la solution
A
mais je crois savoir quel est le mot

(Refrain)
D
C'est du roots man,
G
roots qu'il nous faut
D
C'est du roots woman,
A
un retour aux racines
D
C'est du roots man,
G
roots qu'il nous faut
D
C'est du roots qui dit roots woman
A
Un retour au tempo

Le progres integre a ton gre
A ton gre ?
Ne cesse de voiler ce que tu es en verite
Une espece animale
En voie de disparition
Qui a peut-etre encore une chance
Si elle se pose les bonnes questions
Mais c'est pas sur Num c'que tu dis
Non c'est pas sur mon p'tit
Guizmo mon p'tit Mali
Mais c'est pas sur Num c'que tu dis
Oui mais au fond de moi j'entends ce mot

(Refrain)

Ragga !!
Racine famine sont des mots un peu has been
Pour tout ceux qui acceptent le Babylone ridim
Mais dans tout ca la musique il faut qu'elle s'implique
C'est pourquoi Tryo se leve et fait un peu de politique
C'est peut-etre pas une solution
mais je crois savoir ce qu'il nous faut
Nous faut ?
C'est peut-etre pas la solution
mais je crois savoir quel est le mot

(Refrain)

 

 

Voilà à vous de jouer!

Lien à poster
Partager sur d’autres sites

Veuillez vous connecter pour commenter

Vous pourrez laisser un commentaire après vous êtes connecté.



Connectez-vous maintenant
×
×
  • Créer...