Aller au contenu
jjbond

[W.A.Mozart] Lacrimosa

Messages recommandés

Bonsoir a tous,

 

J'aimerais votre aide concernant un enchainement d'accords.

 

Sur cette vidéo:

de 31sec a 56 le guitariste enchaine plusieurs accords, pouvez vous me donner les noms de ces accords ?

 

Si possible les grilles d'accords.

 

Merci d'avance,

 

JJbond.

Modifié par jjbond

Partager ce message


Lien à poster
Partager sur d’autres sites

Je ne saurai pas te répondre, même si à un moment, j'ai cru reconnaître une forme de La mineur....

En revanche, si tu obtiens ta réponse et que tu arrives à retranscrire entièrement le morceau.... Je suis preneur: le Requiem de WA est pour moi l'un des morceaux les plus magistraux, et le plus beau qui soit....

 

A bon entendeur.....


Facebook : https://www.facebook.com/Lestael/

Soundclound : https://soundcloud.com/lestael

Blog T4A : http://www.tabs4acou...b176-e1442.html

 

Un like, un j'aime, un comm... ou un téléchargement, ça fait toujours plaisir ...

Partager ce message


Lien à poster
Partager sur d’autres sites

Effectivement, pour moi aussi cette musique me fait quelque chose de particulier, à limite du sordide.

C'est pourquoi j'aimerais vraiment la retranscrire a la guitare.

Par contre si tu veux l'auteur mets en vente sa tablature sur un site dans la description de sa vidéo.

Modifié par jjbond

Partager ce message


Lien à poster
Partager sur d’autres sites

Capo 2

 

| La | Mi7 | Lam | Sol(BII|) | Do | Siadd4(BII) | Mim7(c3) |Ré(c5)| Solmadd4(BIII) |

| Sol(BVII) | Do(BVIII) | Sibdim(BIX) | Ré(BX)) | Fa7(BVIII) | Lam(c12) | Mi7 |

 

B= barré

c= case

Partager ce message


Lien à poster
Partager sur d’autres sites

Bonjour merci pour vos réponses.

 

@tizef Merci beaucoup ! je vais tester les accords.

 

jjbond.

Partager ce message


Lien à poster
Partager sur d’autres sites

Bonjour a tous,

 

@Lestael Je pense avoir reussis a retranscricre le début du morceau:

Capo case 2:

 

E |--------------0--1----------------------|
B |--------------------------------8--6----|
G |-----1--2--------------2--1-------------|
D |-----------------------------0----------|
A |--0--------3--------2-------------------|
E |----------------------------------------|

--------5-----------------------0-------|
-----5--------6-------------------------|
-----------------7-----4--5-------------|
-----------------------------------6----|
--7--------5--------7--------7----------|
----------------------------------------|

-----5--------8--5--5--------------0----|
--5--------------------6-----9----------|
--------5-----------------7-----10------|
----------------------------------------|
--0--------7-----0-----------0----------|
----------------------------------------|

-----5--------8--5--5--------------0----|
--5--------------------6-----9----------|
--------5-----------------7-----10------|
----------------------------------------|
--0--------7-----0--7--------0----------|
----------------------------------------|

----------------------------------------|
-----------0--------1--------3----------|
--2--------1--------2--------4----------|
--2--------2--------2--------5----------|
--0-----------------0-------------------|
-----------0-----------------3----------|

--0--------2--------3--------5----------|--6--7--8--9----|--10-11-12-0----||
--1--------4--------5--------7----------|--3--8--8--11---|--10-10-13-0----||
--0--------4--------4--------7----------|--3--7--9--9----|--11-8--14-1----||
-----------------------------0----------|----------------|----------------||
--3--------2----------------------------|-----8-----10---|--9--8----------||
--------------------0-------------------|--3-----0-------|--------0--0----||

Modifié par jjbond

Partager ce message


Lien à poster
Partager sur d’autres sites
Invité lesalexs

Je viens de regarder le fichier que j'avais linké. .. y a vraiment des cons sur terre ... désolé

Partager ce message


Lien à poster
Partager sur d’autres sites

Veuillez vous connecter pour commenter

Vous pourrez laisser un commentaire après vous êtes connecté.



Connectez-vous maintenant

×
×
  • Créer...