Aller au contenu
blacksushi

[Weezer] Pork and beans

Messages recommandés

j'aime cette musique = D tab !

 


Intro and Main Riff	     Played here and there.
eb|-----------------|       |-----------------------|
Bb|-----------------|       |-----------------------|
Gb|-----------------|       |-----------3b4---------|
Db|----------3--1---|      |--------3--------------|
Ab|------3----------|       |-----3-----------------|
Eb|---2-------------|       |-2---------------------|

Bass plays the same intro riff right before the Pre chorus.

Pre-Chorus
eb|---------------------------------------------------------|
Bb|---------------------------------------------------------|
Gb|---------------------------------------------------------|
Db|--5-5---5-5----------------------------------------------|
Ab|--5-5---5-5----------------------------------------------|
Eb|--3-3---3-3----------------------------------------------|
    . .   . .

Bass
Gb|---------------------------------------------------|
Db|---------------------------------------------------|
Ab|---------------------------------------------------|
Eb|--3--3--3-3----------------------------------------|

Chorus
eb|----------------------------------------------|
Bb|----------------------------------------------|
Gb|------------77777777--99999999--55555555------|
Db|--55555555--77777777--99999999--55555555------|4x
Ab|--55555555--55555555--77777777--33333333------|
Eb|--33333333------------------------------------|

Bass
Gb|-------------------------------------------------|
Db|-------------------------------------------------|
Ab|------------55555555--77777777----33333333-------|
Eb|--33333333---------------------------------------|


After chorus is played twice. (Guitar 2 does this)
eb|--------------------|
Bb|----12--------------|Hold the bend for 2 play throughs
Gb|----15b16-----------|of the main chorus, and strum
Db|--------------------|along with guitar 1
Ab|--------------------|
Eb|--------------------|

eb|------------------------------|
Bb|------------------------------|
Gb|--44444444--5-5-5-7-----------|
Db|--44444444--5-5-5-7-----------|
Ab|--22222222--3-3-3-5-----------|
Eb|------------------------------|
    ********  * * *


Gb|--------------------------------------|
Db|--------------------------------------|
Ab|--22222222--3-3-3-5-------------------|
Eb|--------------------------------------|


TABLATURES? QUESTIONS DIVERSES? Pas de Messages Privés postez un nouveau sujet dans la section appropriée..

 

mon matos : http://www.tabs4acoustic.com/forum-discussion-guitare-acoustique/post93988.html#93988

Partager ce message


Lien à poster
Partager sur d’autres sites

Veuillez vous connecter pour commenter

Vous pourrez laisser un commentaire après vous êtes connecté.



Connectez-vous maintenant

×
×
  • Créer...