Aller au contenu

[Yann Tiersen] Comptine d'un autre été


Messages recommandés

Yann Tiersen – Comptine d’un autre été

 

1ère partie                                                             
e|-0-------0-------0-------0-----|-------------------------------|
B|-----0-------0-------0-------0-|-3-------3-------3-------3-----|
G|---------0---------------0-----|-----4-------4-------4-------4-|
D|-2---------------2-------------|---------5---------------5-----|
A|-------------------------------|-5---------------5-------------|
E|-------------------------------|-------------------------------|

                                                    Jouer 2 fois
e|-------------------------------|-------------------------------|
B|-3-------3-------3-------3-----|-3-------3-------3-------3-----|
G|-----4-------4-------4-------4-|-----2-------2-------2-------2-|
D|---------4---------------4-----|-0-------4-------0-------4-----|
A|-5---------------5-------------|-------------------------------|
E|-------------------------------|-------------------------------|



2ème partie
e|-----3-2-3---7-8-7-------------|-------------2-3-2---3-5-3-----|
B|-------------0-------0---------|-----0-------0-------0-------0-|
G|-----0---0-------------------0-|-----------------0-------------|
D|-2-----------------------------|---------0---------------0-----|
A|-----------------7-------------|-------------------------------|
E|-------------------------------|-------------------------------|

e|-------------------2-0-2---7-8-|-7-------------------------2-0-|
B|----------0--------0-------0---|-----0-------------0-----------|
G|-0-----------------------------|---------------------------2---|
D|--------------0------2-4-------|-0---------------------0-------|
A|-------------------------------|----------9--------------------|
E|-------------------------------|-------------------------------|

                    Jouer 2 fois
e|-2-----------------------------|
B|-------------------------------|
G|-----2---------------2-------2-|
D|-4------------0----------4-----|
A|-------------------------------|
E|-------------------------------|



3ème partie
e|-12-----------7-----------------|-10-----------7------------------|
B|------0-------0-------0-------0-|------0-------0--------0-------0-|
G|----------0---------------0-----|----------0----------------0-----|
D|--------------------------------|-0-----------------0-------------|
A|------------------7-------------|---------------------------------|
E|-12-----------------------------|---------------------------------|

e|-14-----------7-----------------|-14------------------------------------|
B|------0-------0--------0------0-|---------------------------------------|
G|--------------------------------|-----------------14--------------------|
D|-0-----------------0------------|-0--------------------0----------------|
A|-----------9--------------9-----|-------12--------12-------12--------12-|
E|--------------------------------|------------14-----------------14------|

e|-------------0-----------------|-3-----------------------------|
B|-8---0-------0-------0-------0-|-3---0-------3-----------------|
G|-9-------0---------------0-----|---------0---4-------4-------4-|
D|-------------------------------|-0---------------0-------5-----|
A|-7---------------7-------------|-------------------------------|
E|-------------------------------|-------------------------------|

e|-2-----------------------------|-2-----------------------------|
B|-3---0-------3-----------------|-3-----------3-----------------|
G|-------------4-------4-------4-|-----2-------2-------2-------2-|
D|-0-------4---------------4-----|-0-------4-------0-------4-----|
A|-----------------5-------------|-------------------------------|
E|-------------------------------|-------------------------------|



4ème partie
e|--------7-----7--------7-----7-|-------8-------7-----7-------7-|
B|------0-----0--------0-----0---|-----0---0---0-----0-------0---|
G|----------0--------------0-----|-----------------0-------------|
D|-------------------------------|-----------0-----------0-------|
A|-7----------------7------------|-7-----------------------------|
E|-------------------------------|-------------------------------|

                                                        Jouer 2 fois
e|-----7---------5-------2-----2-|-------3-------5------5--------3---|
B|---0---------0---0---0-----0---|-----0---0---3------3--------3---3-|
G|-0-----------------------4-----|------------------2----------------|
D|---------0---------0-----------|-0---------0---------------0-------|
A|-------------------------------|-----------------------------------|
E|-------------------------------|-----------------------------------|



Coda
e|-0-----------------------------|
B|-0-----------------------------|
G|-0-----------------------------|
D|-2-----------------------------|
A|-2---Tablé par-----------------|
E|-0---Bloody fingers------------|


 

Fichier .tg --> http://up.sur-la-toile.com/iuAb

 

Pour lire le fichier .tg, téléchargez Tuxguitar --> http://tuxguitar.en.softonic.com/

 

Si, c'est jouable :

 

 

:guitare:

 

Béhèf

Lien à poster
Partager sur d’autres sites
  • 1 month later...

Veuillez vous connecter pour commenter

Vous pourrez laisser un commentaire après vous êtes connecté.



Connectez-vous maintenant
×
×
  • Créer...