Aller au contenu

[Alanis Morissette] Head over feet


Messages recommandés

Head Over Feet

 

[daily]

[/daily]

 


ACCORDS :

Verses:             Chorus:

C:  335553          D:  557775
G:  355433          Bm: 224432
Am: 577555          A:  577655 or 002220
F:  133211          Bb: 113331

Notation :

^   --> coup de médiator vers le haut
v   --> coup de médiator vers le bas
/   --> slide

- - - - - - - - - - - - - - - - - - - - - - - - - - - - - - - - - - - -

VERSE 1

 C           G                     Am          F
| +   .   +   .   +   .   +   .   | +   .   +   .   +   .   +   .   |
|-3-----3-----3-------------3-----|-5-----5-----1-------------1-----|
|-5-----5-----3-------------3-----|-5-----5-----1-------------1-----|
|-5-----5-----4-------------4-----|-5-----5-----2-------------2-----|
|-5-----------5-------------5-----|-7-----------3-------------3-----|
|-3-----------5-------------5-----|-7-----------3-------------3-----|
|-------------3-------------3-----|-5-----------1-------------------|
 v     ^     v             ^       v     ^     v             ^
          I  had         no  choice                but to  hear you

 C           G                     Am          F
| +   .   +   .   +   .   +   .   | +   .   +   .   +   .   +   .   |
|-3-----3-----3-------------3-----|-5-----5-----1-------------1-1---|
|-5-----5-----3-------------3-----|-5-----5-----1-------------1-1---|
|-5-----5-----4-------------4-----|-5-----5-----2-------------2-2---|
|-5-----------5-------------5-----|-7-----------3-------------3-3---|
|-3-----------5-------------5-----|-7-----------3-------------3-3---|
|-------------3-------------3-----|-5-----------1-------------1-----|
 v     ^     v             ^       v     ^     v             v ^
         You sta-----ted     your      case        time and a--gain

 C           G                     Am          F
| +   .   +   .   +   .   +   .   | +   .   +   .   +   .   +   .   |
|-3-----3-----3-------------3-----|-5-----5-----1-------------1-----|
|-5-----5-----3-------------3-----|-5-----5-----1-------------1-----|
|-5-----5-----4-------------4-----|-5-----5-----2-------------2-----|
|-5-----------5-------------5-----|-7-----------3-------------3-----|
|-3-----------5-------------5-----|-7-----------3-------------3-----|
|-------------3-------------3-----|-5-----------1-------------------|
 v     ^     v             ^       v     ^     v             ^
         I thought       a---bout      it.

VERSE 2

You treat me like -I'm a princess
I'm not used to -liking  that
You ask how my day was.  ...You've already

CHORUS

 D             Bm                  G       A
| +   .   +   .   +   .   +   .   | +   .   +   .   +   .   +   .   |
|-5-----5-5-----2-----0---0-------|-3------/5---5-------5---5-5-----|
|-7-----7-7-----3-----------2-----|-3------/5---5-------5---5-5-----|
|-7-----7-7-----4-----------------|-4------/6---6-------6---6-6-----|
|-7-----7-7-----4-----------------|-5------/7---7-------7---7-7-----|
|-5-------5-----2-----------------|-5------/7---7-------7---7-------|
|---------------2-----------------|-3------/5---5-------5---5-------|
 v     ^ v     v                   v           v       v   v ^
 won me o----ve------er           in spite of me.         Don't be a-

 D             Bm                  Bb          A
| +   .   +   .   +   .   +   .   | +   .   +   .   +   .   +   .   |
|-5-----5-5-----2---------0-------|-1-----1-----0-------0---0-0-0---|
|-7-----7-7-----3-----------2-----|-3-----3-----2-------2---2-2-2---|
|-7-----7-7-----4-----------------|-3-----3-----2-------2---2-2-2---|
|-7-----7-7-----4-----------------|-3-----3-----2-------2---2-2-2---|
|-5-------5-----2-----------------|-1-----1-----0-------0---0-0-0---|
|---------------2-----------------|-------------0-------0---0-0-0---|
 v     ^ v     v                   v     ^     v       v   v ^ v
larmed if I  fa------all           head o--ver feet.       Don't be sur-

 D             Bm                  G       A
| +   .   +   .   +   .   +   .   | +   .   +   .   +   .   +   .   |
|-5-----5-5-----2---------0-------|-3------/5---5-------5---5-5-----|
|-7-----7-7-----3-----------2-----|-3------/5---5-------5---5-5-----|
|-7-----7-7-----4-----4-----------|-4------/6---6-------6---6-6-----|
|-7-----7-7-----4-----------------|-5------/7---7-------7---7-7-----|
|-5-------5-----2-----------------|-5------/7---7-------7---7-7-----|
|---------------2-----------------|-3------/5---5-------5---5-------|
 v     ^ v     v                   v           v       v   v ^
prised if I  love    you      for all that you are

 F           C                     G
| +   .   +   .   +   .   +   .   | +   .   +   .   +   .   +   .     |
|-1-----1-1---3-------3---3-------|-3-------------------3---3---3/8--|
|-1-----1-1---5-------5---5-------|-3-------------------3---3---3/8--|
|-2-----2-2---5-------5---5-------|-4-------------------4---4---4/9--|
|-3-----3-3---5-------5---5-------|-5-------------------5---5---5/10-|
|-3-----3-3---3-------3---3-------|-5-------------------5---5---5/10-|
|-1-----1-1-----------------------|-3-------------------3---3---3/8--|
 v     ^ v   v       v   v         v                   v   v
 I couldn't  help    it            It's all your fault.

VERSE 3 

Your love is thick -and it swallowed me whole.
You're so much braver -than I gave you credit for.
That's not lip service.

CHORUS 


VERSE 4

You are the bearer -of unconditional things. 
You held your breath -and the door for me
Thanks for your patience

HARMONICA SOLO

VERSE 5 

You're the best listener -that I've ever met
You're my best friend, -best friend with benefits
What took me so long

VERSE 6

I've never felt -this healthy before
I've never wanted -something rational
I am aware now  -ow
I am aware now. ...You've already

CHORUS (2x)

HARMONICA 

 

:zik:

 

 

Source : tTabs

 

 

 

 

Sujet déplacé par Bloody fingers.

Lien à poster
Partager sur d’autres sites

Veuillez vous connecter pour commenter

Vous pourrez laisser un commentaire après vous êtes connecté.



Connectez-vous maintenant
×
×
  • Créer...