Aller au contenu
Attila84

[Ben Harper] Sexual healing

Messages recommandés

Pour ce morceau j'ai bosser par rapport à cette vidéo

http://www.dailymotion.com/relevance/search/sexual+healing+cover/video/x2o357_sexual-healing-ben-harper-explicati_music

 

Bon les accords sont simples donc pas de problème de ce coté là, le rythme ça peut aller

 

Mais le rif me pose vraiment problème, en fait je fais les notes qu'il faut mais ça donne pas vraiment la même chose que sur le vrai

 

Je parle du rif

--------------------3----
--------------------O----
--------------------O----
------O-2-O-------O-   on reprend la boucle
-O-3---------3-O--2----
--------------------3----

 

Le vrai

 

Vraiment magnifique je m'en lasse pas

Partager ce message


Lien à poster
Partager sur d’autres sites
Invité

est ce que tu as le bon accordage?

 

ta guitare est tunée standard (enfin, au début) donc EADGBe mais peut etre que Ben le joue autrement, genre je sais pas en Drop D ou qu'il a tout baissé d'un demi ton, enfin faut voir le type d'accordage... (disons que j'y connais rien mais ca peut peut etre venir de la)

 

edit : bon le drop D change que la Mi grave donc ca peut pas etre ca ^^

Partager ce message


Lien à poster
Partager sur d’autres sites

ah ce riff......

 

Genialissime le Ben encore une fois!

 

Pour commencer : pour la jouer à la Ben Harper, il faut laisser tomber le médiator : le pouce fait les basses, d'ailleurs à bien ecouter s'agissant du F et du G seules les notes sur la corde de Mi sont jouées.

 

Concernant le riff en particulier : un savant melange de hammer et pull-off

 

corde la : attaque en aller sur corde à vide hammer 3e case

corde re : attaque retour sur corde à vide hammer en 2eme puis pull-off

 

profite du hammenr en corde de La pour preparer ton attaque sur la corde ré

pour ce qui est de position main gauche ; il s'agit de preparer tes doits comme si tu allait faire un accord de do

 

travail le riff lentement puyis acclere au fur et mesure de ta maitrise

Partager ce message


Lien à poster
Partager sur d’autres sites
est ce que tu as le bon accordage?

 

ta guitare est tunée standard (enfin, au début) donc EADGBe mais peut etre que Ben le joue autrement, genre je sais pas en Drop D ou qu'il a tout baissé d'un demi ton, enfin faut voir le type d'accordage... (disons que j'y connais rien mais ca peut peut etre venir de la)

 

edit : bon le drop D change que la Mi grave donc ca peut pas etre ca ^^

 

Pour ce morceau l'accordazge est standard puis un drop D ne changerai rien sur ce riff puisque la corde de mi n'est pas concernée

Partager ce message


Lien à poster
Partager sur d’autres sites

euh Mister harper utilise un accordage standart un ton plus bas dans cette chanson c'est a dire que toute les cordes sont baissées d'un ton ;)

Partager ce message


Lien à poster
Partager sur d’autres sites
Invité

 

Pour ce morceau l'accordazge est standard puis un drop D ne changerai rien sur ce riff puisque la corde de mi n'est pas concernée

oui oui je sais j'avais rectifié ;)

Partager ce message


Lien à poster
Partager sur d’autres sites
ah ce riff......

 

Genialissime le Ben encore une fois!

 

Pour commencer : pour la jouer à la Ben Harper, il faut laisser tomber le médiator : le pouce fait les basses, d'ailleurs à bien ecouter s'agissant du F et du G seules les notes sur la corde de Mi sont jouées.

 

Concernant le riff en particulier : un savant melange de hammer et pull-off

 

corde la : attaque en aller sur corde à vide hammer 3e case

corde re : attaque retour sur corde à vide hammer en 2eme puis pull-off

 

profite du hammenr en corde de La pour preparer ton attaque sur la corde ré

pour ce qui est de position main gauche ; il s'agit de preparer tes doits comme si tu allait faire un accord de do

 

travail le riff lentement puyis acclere au fur et mesure de ta maitrise

 

merci j'ai compri le principe, mais j'ai vraiment du mal pour le retour sur la corde de LA après l'attaque sur la corde de Ré.....

Et j'ai une question, est-ce que tout ce joue de joue au pousse pour la main droite, j'ai regardé un peu ben et apparement il joue tout au pouce et je trouve que ça permet de varier bien les attaque sur les corde (celle du rif par exemple)....

Partager ce message


Lien à poster
Partager sur d’autres sites

en complément pour ceux qui veulent la partoche :

 

 

Accorder la guitare un ton plus bas:

    ( D,G,C,F,A,d )


Riff + Accords: 

         d:------------------------------------------------------------------
         A:----------------1-1----------------1--------1---------------------
         F:----------------2-2----------------2--------0---------------------
    1)   C:----------------2-2----------------3--------2-------0h2--0--------
         G:--------2-----------------------------------3----0h3-------3---0--
         D:----3---3----------------0----1----1------------------------------
                                        (P)  (P)


         d:-------------------II----------------------------------------------II
         A:--------------1-1--II---------------------1-----------(3)-------1--II
         F:--------------2-2--II-------------0-----------------1-----------2--II
    2)   C:--------------2-2--II-0---2---3-----------2---0h2---2-----------3--II
         G:------2------------II------------------3--3---------2--------------II
         D:--3---3------------II--------------------------------------1----1--II
                                                                     (P)  (P)

 

 

 

 

(Verse)

Chords: G  G  G         Am Am Am       Em Em
E-------x--x--x------------------------------------
B-------x--x--x------------------------------------
G-------0--0--0---------2--2--2--------------------
D-------0--0--0---------2--2--2---------2--2-------
A-------2--2--2----0----0--0--0---------2--2-------
E--3----3--3--3--------------------0----0--0----1--

 F  F  F          C
----------------------------
----------------------------
----------------------------     repeat this once for
--0--0--0--------0h2p0------     intro then 11 more
--0--0--0----3--3-------3--0     till chorus
--1--1--1-------------------

11th verse

       G  G  G         Am Am Am        Em Em
E-------x--x--x------------------------------------
B-------x--x--x------------------------------------
G-------0--0--0---------2--2--2--------------------
D-------0--0--0---------2--2--2---------2--2-------
A-------2--2--2----0----0--0--0---------2--2-------
E--3----3--3--3--------------------0----0--0-------

Chorus begins

                 C  C  C  C     E  E  E  E     Am Am
E-----------------0--0--0--0-----0--0--0--0-----0--0
B-----------------1--1--1--1-----0--0--0--0-----1--1
G-----------0-----0--0--0--0-----1--1--1--1-----2--2
D--0--2--3--------2--2--2--2-----2--2--2--2-----2--2
A--------------3--3--3--3--3-----2--2--2--2--0--0--0
E-----------------------------0---------------------

 Am Am
--0--0------------------
--1--1------------------
--2--2-----------0------  This repaets 5 times and
--2--2--0--2--3---------  back to chorus
--0--0------------------
------------------------

Play this tab through twice and that is the song.

Artist: Ben Harper
Song:  Sexual Healing
Tabbed by:  Nathan Fenn

The verse in the above is wrong although the alterations are minor.
The chord progression throughout the verse isn't
G / Am / Em / F

The correct chords are
G / Am / F / C
And they're played like this:

  G        Am         F         C

---3---   ---0---   ---0---   ---0---
---3---   ---1---   ---1---   ---1---
---0---   ---2---   ---2---   ---0---
---0---   ---2---   ---3---   ---2---
---2---   ---0---   ---0---   ---3---
---3---   ---X---   ---X---   ---X---


If Slash's guitar could speak she'd say "I fuckin love you !"

 

Vous aimez Tabs4Acoustic.com ? Aidez-nous !

Devenez fan sur Facebook, suivez-nous sur Twitter, abonnez-vous sur Youtube, devenez supporter

 

t4a_userbar4.png

Partager ce message


Lien à poster
Partager sur d’autres sites

Fort bien :D):D):D)

 

 

___________________________________________________________________________________________________________________


Sa Grandeur, le Vicompte du Domaine Floodesque

Jam en ligne !! <---

Partager ce message


Lien à poster
Partager sur d’autres sites

Veuillez vous connecter pour commenter

Vous pourrez laisser un commentaire après vous êtes connecté.



Connectez-vous maintenant

×
×
  • Créer...