Aller au contenu

[Classique] Morceau pour débutant 2: Divertissement


Messages recommandés

Un autre morceau bon pour débuter. Son nom, "Divertissement"!

un peu plus difficile que le 1er, mais on reste sur la même idée: pas de notes simultanées, pas de positions trop difficiles...Bref, un second morceau à mettre dans votre cahier de débutant :p

La principale difficulté supplémentaire par rapport au précédent vient des basses, que l'on va étoffer un peu plus...Bref, arrêtons de bavarder, voici votre "divertissement"!!

rythme:

noire

blanches

 

Partie 1 (x2)

 

e----------------------------------------------------------------------------------0--1------0----------------------------------------

B-------0--1------1--0---------0--1--3------3--1--0----------0--1-------3---------------------------------------------------

G----2--------------------2----------------------------------2------------------------------------1--2--------------------------------------------

D-------------------------------------------------------------------------0-------------2-------------------------------------------------------

A-0-------------0-----------------------------------------0----------------------------------------------0------------------------------------------

E-----------------------------0-------------0--------------------------------------------------0-----------------------------------

 

Partie 2 (x2)

 

e------0--------------------------------------------------------------0--1-----0--------------------------------------------------------------------

B---------3--1----0------------1--0--------0----------0--1------3---------------------------------------------------------------------------------

G---------------------2--1------------2-----------2-----------------------------------1--2-----------------------------------------------------

D--2----------------------------------------------------------0-------------2-------------------------------------------------------------------

A----------------------------0------------------0----------------------------------------------0----------------------------------------------

E----------------0-------------------------0----------------------------------------0-----------------------------------------------------------

 

Continuez comme sur le 1er morceau à vous attachez à la rigueur, 1 doigt par case coté gauche! (index Case 1, majeur case 2, annulaire case 3, et pour ce morceau pas besoin de plus)Main droite, pareil, garder les bonnes habitudes...Ici, toutes les basses se font avec le pouce, pour le reste, alternance index/majeur, pas besoin de l'annulaire, même pour la corde de Mi aïgue (mais au pire, c'est pas grave de s'en servir, mais je pense que peu de gens le fera :p )

Après, pas vraiment de conseils spécifiques pour ce morceau, pensez simplement à garder les doigts main gauche quand c'est possible, comme par exemple ceci:

 

____________*_____*______________**___________**_
B--------0--1------1--0---------0--1--3------3--1--0

 

on peut garder l'index sur la 1ère case entre les 2 *, et garder index puis annulaire entre les 2 **

 

 

au niveau du rythme, pas de difficulté particulière...

 

Bref, au boulot!!!

je ferais peut être une vidéo ce week end

Lien à poster
Partager sur d’autres sites

salut a vous tous je voudrai avoir des nfo sur la guitare classiqe surtout enfaite pour ke veu dir AM G F C E B ...voila les lettre ki szont sur les tabulation koi et je sais kelke une mais bon jvoudrai savoir komment les jouer voila tout merci a tous se me repondre davance a+++si ki ke se soie voudrer me conetre un peu plus kil me le fait parvenir ol jte dirrer tout..........ciao .

Lien à poster
Partager sur d’autres sites
salut a vous tous je voudrai avoir des nfo sur la guitare classiqe surtout enfaite pour ke veu dir AM G F C E B ...voila les lettre ki szont sur les tabulation koi et je sais kelke une mais bon jvoudrai savoir komment les jouer voila tout merci a tous se me repondre davance a+++si ki ke se soie voudrer me conetre un peu plus kil me le fait parvenir ol jte dirrer tout..........ciao .

 

Laissez passer! je suis une expeerte en traduction SMSienne!

 

Salut à vous tous,

Je voudrais avoir des informations sur le guitare classique surtout, en fait, sur la signification de "Am G F C E B"

Ce sont des lettre qui sont sur les tablatures. J'en sais quelques une mais bon, je voudrais savoir comment les jouer. Voila tout.

Merci d'avance à tous de me répondre. a+

 

Si qui que se soit souhaiterais me connaitre un peu plus, qu'il me le fasse savoir lot of laght. Je dirrais tout.

 

Au-revoir.

 

Tadam!

Sinon puor ta réponse, va voir sur le l'autre post ;)

Lien à poster
Partager sur d’autres sites
  • 3 months later...
  • 4 weeks later...

Ca y est, je m'y colle, et je continue à répéter Alone de B.H et le premier morceau pour débutant.

Seul soucis, j'ai tendance, à ne jouer que des morceaux en arpège... :( , j'ai du mal avec les accords, la rytmique, dans un morceau avec des accords à jouer ensembles, et bien y'a toujours un accord qui me pose une difficulté. C'est pas bien je me doute, mais je me dis que d'un autre côté, si pour l'instant je joue en finger picking, et bien cela m'aide tout de même à être à l'aise avec mon instrument, mes doigts s'assouplissent aussi, deviennent plus agiles etc... Mais bon, il va falloir un jour ou l'autre que je saute le pas hein ! :siffle:

 

Bon j'y go. ;)

Lien à poster
Partager sur d’autres sites

Oui, merci pour ta réponse et ton aide, le tout c'est de se lancer, après tout, cela ne sera pas forcément si catastrophique... je vais aller voir le lien que tu as mis, merci encore. :p

Lien à poster
Partager sur d’autres sites

Perso je me suis mis aux accords très tard.

J'ai des soucis de rythmique, mais ça n'est sans doute pas dû à ça puisque j'en ai toujours eu. Tu peux sans soucis faire du fingerpicking tant que tu en a envie, rien ne t'oblige à faire des accords, ça te viendra petit à petit, et comme tu dis, pour l'instant tu en profite pour assouplir tes doigts, donc ça n'est absolument pas du temps perdu, tant que tu te fais plaisir. ;)

Lien à poster
Partager sur d’autres sites

Bon merci à vous, ça me rassure un peu, chacun avance à son rythme, c'est vrai, mais de mon côté le parcours est parfois cahotique, et pas toujours trés logique dans l'ordre d'évolution. :boing:

Lien à poster
Partager sur d’autres sites
  • 1 year later...

désolé j'étais parti en vacances j'ai un peu oublié de prévenir ^^

je suis en période de déménagement du coup je sais pas si j'aurais trop le temps, je fais ça dès que possible, promis :)

Lien à poster
Partager sur d’autres sites
  • 4 weeks later...
  • 1 year later...

Bonjour,

Je me présente, Charles, débutant et quelques mois de guitare, j'apprends sur une folk. Pour le moment je m'oriente pas vers un style particulier, je me concentre sur les bases!

Donc ma question débile: tu dis que pour les aigus ont peu utiliser 3 doigts( index/majeur/ annulaire), mais la solution la plus "académique" pour progresser et anticiper sur des morceaux plus compliqués est-elle avec 2 doigts ou 3?

Merci

Lien à poster
Partager sur d’autres sites

La règle fonctionne très bien, on joue vraiment avec les doigts ami pour les notes les plus aiguës. Je dirais que ça dépend du morceau, pour deux ou trois doigts.

 

Les arpèges te forcement à utiliser l'annulaire. Certains morceaux mélodiques de forceront à travailler l'alternance index majeur. En règle générale on n'évite de jouer plusieurs fois avec le même doigt.

Lien à poster
Partager sur d’autres sites
  • 1 month later...

Le type d'arpège leplus fréquents, le pouce joue les basses E A D, l'indexe le G, le majeur le B, et l'annulaire le E aigue.

 

Certains morceaux ou la basse récurante est le D, on joue donc la basse avec le pouce et les 2 cordes aigues avec l'indexe pour la corde de B et le majeur pour celle de E

Lien à poster
Partager sur d’autres sites

Veuillez vous connecter pour commenter

Vous pourrez laisser un commentaire après vous êtes connecté.



Connectez-vous maintenant
×
×
  • Créer...