Aller au contenu

[Final Fantasy X] To Zanarkand


Messages recommandés

Tres tres tres belle musique je vous conseille vivement de l'apprendre ...

    E  E  E  E  E  E     H.              E  E  E  E  E  E     H.            
E||--0-----------0--2--|--3------------|-----------------0--|--2------------|
B||-----------0--------|---------------|--3-----------3-----|---------------|
G||--------0-----------|---------------|-----------2--------|---------------|
D||-----2--------0-----|---------------|-----0--4-----------|---------------|
A||--------------------|--3------------|--5-----------3-----|--2------------|
E||--0-----------------|---------------|--------------------|---------------|


 E  E  E  E  E  E     Q.     E  Q       E  E  E  E  E  E     H.            
--------------------|-----------------|--------------------|---------------|
--0-----0-----0-----|--0---------3----|--------------------|---------------|
--------------------|--0------2-------|--------------------|--4------------|
--------0-----2--4--|-----------------|--4-----------0--4--|---------------|
--3--------3--------|-----------------|--2-----2--4--------|---------------|
-----3--------------|-----------------|-----2--------------|---------------|


 E  E  E  E  E  E     Q.     Q    E     E  E  E  E  E  E   
--0-----0-----0-----|--0-----------3--|--------------------|
--------0-----1--3--|--5------3-------|--1-----------------|
-----------2--------|-----------------|-----------0--2--5--|
-----2--------------|-----------------|--------3-----------|
--0-----------------|-----------------|-----3--------------|
--------------------|-----------------|--1-----------------|


 E  E  E  E  E  E       E  E  E  E  E  E     E  E  E  E  E  E   
--------------5--8--||---0-----------0--2--|--3-----2-----0-----|
--6-----6--8--------||------------0--------|--------------------|
-----5--------------||*--------------0-----|-----0--------------|
--------------------||*--------2--4--------|-----------4--2-----|
--------------------||------2--------------|--3--------------3--|
--------------------||---0-----------------|--------------------|


 E  E  E  E  E  E     E  E  E  E  E  E     E  E  E  E  E  E   
-----------0--------|--------------------|--0-----------0--2--|
--3-----3-----3-----|--0-----------0--3--|-----------0-----0--|
-----2--------------|--------0--2--------|--------------0-----|
--0--------2--4-----|-----0--------------|--------2--4--------|
-----------------3--|--------------------|-----2--------------|
--------------------|--3-----------------|--0-----------------|


 E  E  E  E  E  E     E  E  E  E  E  E     E  E  E  E  E  E   
--3-----2-----3-----|--5--------3--5-----|--7-----------------|
--------------------|--------3--5--7-----|--------------0--3--|
-----0--------------|-----2-----------5--|--------0--2--------|
-----------4--2-----|--0-----------------|-----0--------------|
--3--------------3--|--------------------|--------------------|
--------------------|--------------------|--3-----------------|


 E  E  E  E  E  E     E  E  E  E  E  E     E  E  E  E  E  E   
--0-----------0--2--|--3-----2-----0-----|-----------0--------|
-----------0-----0--|--------------------|--3-----3-----3-----|
--------------0-----|-----0--------------|-----2--------------|
--------2--4--------|-----------4--2-----|--0--------2--4-----|
-----2--------------|--3--------------3--|-----------------3--|
--0-----------------|--------------------|--------------------|


 E  E  E  E  E  E     E  E  E  E  E  E     Q.     E  Q     
--------------------|--------------------|-----------------|
--0-----------------|--0-----0-----0-----|--0---------3----|
--------0-----0--2--|-----0--5--0--4--0--|---------2-------|
-----0--------------|--------------------|--0--------------|
-----------0--2-----|--3-----------------|-----------------|
--3--------------2--|--------------------|-----------------|


 E  E  E  E  E  E     E  E  E  E  E  E     E  E  E  E  E  E   
--------------------|--------------------|--0-----------0--3--|
--------------------|-----------------1--|-----------1--------|
--0-----0-----------|--------------0-----|--------0-----------|
-----2-----5--4--0--|--2--------2--------|-----2--------------|
--0-----------2-----|--3-----3-----------|--------------------|
--------------------|-----3--------------|--------------------|


 E  E  E  E  E  E     E  E  E  E  E  E     E  E  E  E  E  E   
--5-----------0-----|--0-----------------|--------------3-----|
-----------0--1-----|--------3-----1-----|--0--------------3--|
--------2-----------|-----------2--2-----|--------0--2--4-----|
-----2-----------2--|--------3-----------|-----0--------------|
--0-----------------|-----3-----------3--|--------------------|
--------------------|--1-----------------|--3-----------------|


 E  E  E  E  E  E     E  E  E  E  E  E     H.              E  E  E  E  E  E   
--3-----------------|--------------2-----|--2------------|--------------0-----|
--------------------|--0-----------------|---------------|-----------0--1-----|
--------------0--4--|--------------------|---------------|--2-----2--------2--|
--------2--4--------|--------------0--2--|---------------|-----2--------------|
-----2--------------|--2-----2--4--------|---------------|--0-----------------|
--0-----------------|-----2--------------|--2------------|--------------------|


 Q    H           E  E  E  E  E  E     E  E  E  E  E  E     E  E  E  E  E  E   
--0-------------|--------------------|--2-----2-----0-----|--------------------|
--0----4--------|--0-----0-----------|--------------------|--3-----2--------0--|
----------------|-----2--------------|--------------0--2--|--4-----------2-----|
----------------|--------------------|--0--------0--------|-----0-----2--------|
--2-------------|--------2-----2--4--|--------------------|--------0-----------|
----------------|-----------2--------|-----2--3-----------|--------------------|


 E  E  E  E  E  E     E  E  Q    Q       Q    H           Q    H         
--5-----5-----------|--------4----0----|----------------|--2-------------|
--2-----------------|------------------|--2----0--------|--0-------------|
-----2-----------1--|--2--4------------|----------------|--0----2--------|
--------------4-----|------------------|----------------|-------4--------|
-----------4--------|--------4---------|----------------|----------------|
--------2-----------|------------------|-------3--------|----------------|


 E  Q    E  E  E     E  E  E  E  Q               
-------------------|-----------2-------|--------||
----------0--------|--------4----------|--------||
-----2-------------|-----4-------------|-------*||
--4-------------1--|--4----------------|-------*||
-----0----2--2-----|-------------------|--------||
-------------------|-------------------|--------||

 

voilaa ^^

Lien à poster
Partager sur d’autres sites
  • 2 weeks later...

Rolala j'ai trop du mal a la faire cette musique, et pourtant elle est tellement belle snif:

 

Si quelqu'un pourait expliquer doucement sur une vidéo comment si prendre pour la position des doigts ... cette personne serait un Dieu :)

Lien à poster
Partager sur d’autres sites
  • 1 month later...

Ha bah, je suis en retard, masije viens de découvrir. C'est super joli. Je suis en train de bosser ça. Par contre, pour ceux qui trouvent ça trop dur, ya une ou deux petites astuces qui simplifient la tab. J'essaierai de mettre ça plus tard.

 

Genre deuxième mesure :

 

    E  E  E  E  E  E     H.              E  E  E  E  E  E     H.           
E||--0-----------0--2--|--3------------|-----------------0--|--2------------|
B||-----------0--------|---------------|--3-----------3-----|---------------|
G||--------0-----------|---------------|-----------2--------|---------------|
D||-----2--------0-----|---------------|--0--0--4-----------|---------------|
A||--------------------|--3------------|--------------3-----|--2------------|
E||--0-----------------|---------------|--------------------|---------------|

 

Le petit détail qui rend la vie plus facile à ceux qui n'aiment pas s'écarteler les doigts, ça devient tout de suite plus évident d'enchainer la suite.

Lien à poster
Partager sur d’autres sites

9a me gene pas de souffrir si c'est utilie... Là en l'occurence, non...

 

Autant simplifier puisque à sonne pareil. D'ailleurs ça me parait plus logique la version modifiée...

Lien à poster
Partager sur d’autres sites

Un peu modifiée pour simplifier avec exactement les même note + une petite tricherie pour ceux qui ecartent pas les doigts facilement su 6 frettes d'écart...

 

    E  E  E  E  E  E     H.              E  E  E  E  E  E     H.           
E||--0-----------0--2--|--3------------|-----------------0--|--2------------|
B||-----------0--------|---------------|--3-----------3-----|---------------|
G||--------0-----------|---------------|-----------2--------|---------------|
D||-----2--------0-----|---------------|--0--0--4-----------|---------------|
A||--------------------|--3------------|--------------3-----|--2------------|
E||--0-----------------|---------------|--------------------|---------------|


 E  E  E  E  E  E     Q.     E  Q       E  E  E  E  E  E     H.           
--------------------|-----------------|--------------------|---------------|
--0-----0-----0-----|--0---------3----|--------------------|---------------|
--------------------|--0------2-------|--------------------|--4------------|
--------0-----2--4--|-----------------|--4-----------0--4--|---------------|
--3--------3--------|-----------------|--2-----2--4--------|---------------|
-----3--------------|-----------------|-----2--------------|---------------|


 E  E  E  E  E  E     Q.     Q    E     E  E  E  E  E  E   
--0-----0-----0-----|--0-----------3--|--------------------|
--------0-----1--3--|--5------3-------|--1--------------0--|
-----------2--------|-----------------|-----------0--2-----|
-----2--------------|-----------------|--------3-----------|
--0-----------------|-----------------|-----3--------------|
--------------------|-----------------|--1-----------------|


 E  E  E  E  E  E       E  E  E  E  E  E     E  E  E  E  E  E   
--------------5--8--||---0-----------0--2--|--3-----2-----0-----|
--6-----6--8--------||------------0--------|--------------------|
-----5--------------||*--------------0-----|-----0--------------|
--------------------||*--------2--4--------|-----------4--2-----|
--------------------||------2--------------|--3--------------3--|
--------------------||---0-----------------|--------------------|


 E  E  E  E  E  E     E  E  E  E  E  E     E  E  E  E  E  E   
-----------0--------|--------------------|--0-----------0--2--|
--3-----3-----3-----|--0-----------0--3--|-----------0-----0--|
-----2--------------|--------0--2--------|--------------0-----|
--0--------2--4-----|-----0--------------|--------2--4--------|
-----------------3--|--------------------|-----2--------------|
--------------------|--3-----------------|--0-----------------|


 E  E  E  E  E  E     E  E  E  E  E  E     E  E  E  E  E  E   
--3-----2-----3-----|--5--------3--5-----|--7-----------------|
--------------------|--------3--5--7-----|--------------0--3--|
-----0--------------|-----2-----------5--|--------0--2--------|
-----------4--2-----|--0-----------------|-----0--------------|
--3--------------3--|--------------------|--7-----------------|
--------------------|--------------------|--------------------|


 E  E  E  E  E  E     E  E  E  E  E  E     E  E  E  E  E  E   
--0-----------0--2--|--3-----2-----0-----|-----------0--------|
-----------0-----0--|--------------------|--3-----3-----3-----|
--------------0-----|-----0--------------|-----2--------------|
--------2--4--------|-----------4--2-----|--0--------2--4-----|
-----2--------------|--3--------------3--|-----------------3--|
--0-----------------|--------------------|--------------------|

 

Sinon, cette partie là :

 

  E  E  E  E  E  E     E  E  E  E  E  E     Q.     E  Q     
--------------------|--------------------|-----------------|
--0-----------------|--0-----0-----0-----|--0---------3----|
--------0-----0--2--|-----0--5--0--4--0--|---------2-------|
-----0--------------|--------------------|--0--------------|
-----------0--2-----|--3-----------------|-----------------|
--3--------------2--|--------------------|-----------------|

 

Elle est juste? Parce que bon, j'ai pas la musique en tête jusqu'à aussi loin, mais ça sonne moche non? Ou c'est que moi?

 

La suite, j'ai pas la musique en tête, et quand je le joue ça resemble à rien non plus... Faudra que je réécoute la VO.

Lien à poster
Partager sur d’autres sites
  • 3 weeks later...

salut, je suis pas tres doué au niveau de la compréhensibilité (si ca se dit :rolleyes: ) des partitions, je suppose que quand il y a deux 0, on jou les deux cordes concernés seules, quand il y a un 2, on mets le doigt sur la deuxième cas c'est ca? et aussi, que veulent dire les *? merci davance ;)

 

:top:

Lien à poster
Partager sur d’autres sites
salut, je suis pas tres doué au niveau de la compréhensibilité (si ca se dit :rolleyes: ) des partitions, je suppose que quand il y a deux 0, on jou les deux cordes concernés seules, quand il y a un 2, on mets le doigt sur la deuxième cas c'est ca? et aussi, que veulent dire les *? merci davance ;)

 

:top:

 

*

* > ce sont des reprises, c'est a dire qu'il va falloir jouer deux fois la derniere partie dans ce cas.

 

quand il y a deux notes, tu fais sonner les deux cordes a la fois avec deux doigts.

 

si il faut metre son doigt sur la case 2, tu met ton doigt a la case deux .

Lien à poster
Partager sur d’autres sites
  • 5 months later...

Un peu H.S

 

Mais, je suis en train de faire une modification en GP, et au lieu d'adapter le piano à la guitare, j'ai décidé de crée une guitare qui suit =) Voila.

 

Je vous en ferais part dés que finie

Lien à poster
Partager sur d’autres sites
  • 5 months later...
  • 9 months later...

C'est le dernier morceau en date que j'ai travaillé, j'ai juste oublié la fin faut que je me rafraichisse la mémoire dès que possible, mais je suis plutôt content globalement car maintenant je la joue de façon claire, sans sons qui grésillent, puis je la trouve plutôt jouissive à jouer :D Magnifique musique!

Lien à poster
Partager sur d’autres sites
  • 4 months later...

Veuillez vous connecter pour commenter

Vous pourrez laisser un commentaire après vous êtes connecté.



Connectez-vous maintenant
×
×
  • Créer...