Aller au contenu

[Francis Cabrel] Je l'aime à mourir


Messages recommandés

Bon j'espère mettre le message au bon endroit ce coup-ci ! lol^^

 

Ma question est la suivante :

 

Que veut dire C/B ? Y a une différence avec C ?

 

C'est con, mais je me suis demandé si je pouvais jouer soit C soit B mais je crois pas que ce soit çà. Et C/B n'est pas écrit dans la liste des accords.

 

Merki !

Lien à poster
Partager sur d’autres sites

en fait C/B c'est C "sur" B, bref un mix des deux (ce n'est donc pas que un C ou que B).

 

L'idée de base c'est de jouer le C avec la fondamentale du B. (pour plus d'infos sur la construction des accords Slial a fait un topo niquel ici).

=>Ce n'est pas exactement ça à 100% pour faire simple pense-le comme ça ;)

 

ex concret:

En gros le C c'est:

x32010

et le B:

x24442

 

(j'ai mis les fondamendales des 2 accords en gras^^)

 

le C/B:

x20010

 

la partir rouge: le B, la verte: le C

 

 

:!: garde à l'esprit que c'est une explication basique, la vérité est plus compliquée ;)

Lien à poster
Partager sur d’autres sites

Ok pour résumé, C/B est le mélange des fondamentales de C et de B.

Et donc çà donne C/B : x20010

 

Cependant dans la liste d'accord, tu écris aussi que Em/5+ : x20010.

 

Dois-je en déduire que ce sont les mêmes accords ?

Dans ce cas, ne serait-ce pas plus simple de ne l'appeller que C/B ou que Em/5+ ?

 

Désolé pour toutes ces questions, je ne sais pas précisement ton niveau de guitare (pour y répondre) mais étant scientifique j'aime bien comprendre comment çà marche... :p

 

Autre truc sinon, il y a une faute de frappe dans le troisième couplet, 6ème ligne : un "d" c'est transformer en "s" dans la phrase, "de les retenir", ce qui donne "se les retenir".

Voilà, c'est ma p'tite contribution à l'amélioration du site ! lol

 

Allez je vais me la rejouer en suivant tes conseils !

 

Amicalement,

Ant

Lien à poster
Partager sur d’autres sites

en fait un même accord peut avoir plusieurs noms en fonction de son sens de lecture si tu veux.

 

en ce qui concerne Em/5+ et C/B ne sont pas les mêmes en tout cas, C/B doit plutôt être un truc ça:

x2x010

 

bref ya toujours une infime différence qui peut se transformer en nom d'accord à rallonge "barbare" :p

Lien à poster
Partager sur d’autres sites

merci pour le topo niquel :):)

bref ya toujours une infime différence qui peut se transformer en nom d'accord à rallonge "barbare" :p
lol oui, par exemple: G#7add13/C# ou F#7sus2add13/5-/C# :D:D
Lien à poster
Partager sur d’autres sites
merci pour le topo niquel :):)

lol oui, par exemple: G#7add13/C# ou F#7sus2add13/5-/C# :D:D

 

Arrête çà fait peur ! :fool: Ton truc existe vraiment ? Est-ce que tu sais comment çà çà joue au moins ? lol :guitare:

Lien à poster
Partager sur d’autres sites
Non non ça n'existe pas des aussi longs... mais sinon tu peux avoir...

A#7sus4... ça fait déjà pas mal laugh.gif

ah mais si, ça existe! (tu as raison dans un sens, c'ets que personne n'utilise ces accords... dans un sens, c'est la notation qui peut être ''correcte'' d'utiliser... c'est juste le nom compliqué qu'on donne à un accord pour dire d'où il vient...)

Par exemple, G#7add13 c'est un accord qui se joue 464564 et qui peux se nommer simplement Fm- ...et F#7sus2add13 et ça se joue x 9 11 9 9 11... mais plus simple, Do, ça se joue x32010, mais en regardant, ça pourrais aussi se nomer Em/5+ ou Gsus4add13 tongue.gif (vous regarderez la construction de l'accord wink.gif pour Do et Em/5+)

[enfin, je suis pas pro dans ces accords donc...)

 

édit: hihi, correction du titre qui était: ''je l'aime à mourire'' !!!

Modifié par toffy
Lien à poster
Partager sur d’autres sites
  • 6 months later...

Salut à tous!

Il n'y aurais pas quelqu'un qui aurait la partition "Je l'aime à mourir" de Francis Cabrel...?!

 

Merci d'avance!

Womansmoke :rolleyes:

 

 

 

edit d'anduril : fais un post par chanson stp et nomme le post comme indiqué dans le règlement. merci

Lien à poster
Partager sur d’autres sites

 

Je l'aime à mourir

Francis Cabrel

----

 

 

Do

Moi je n'étais rien mais voilà qu'aujourd'hui

Mim

Je suis le gardien du sommeil de ses nuits

Lam

Je l'aime à mourir

Rém

Vous pouvez détruire tout ce qui vous plaira

Fa Sol

Elle n'a qu'à ouvrir l'espace de ses bras

Do

Pour tout reconstruire, pour tout reconstruire

Lam

Je l'aime à mourir

Do

Elle a gommé les chiffres des horloges du quartier

Mim

Elle a fait de ma vie des cocottes en papier

Lam

Je l'aime à mourir

 

Rém

Elle a bâti des ponts entre nous et le ciel

Fa Sol

Et nous les traversons à chaque fois qu'elle

Do

Ne veux pas dormir, ne veux pas dormir

Lam

Je l'aime à mourir

 

Mi Do

Elle a dû faire toute les guerres

Sol Do

Pour être si forte aujourd'hui

Mi Lam

Elle a dû faire toutes les guerres

Fa Do

De la vie… Et l'amour aussi

 

Do

Elle vit de son mieux son rêve d'opaline

Mim

Elle danse au milieu des forets qu'elle dessine

Lam

Je l'aime à mourir

 

Rém

Elle porte des rubans qu'elle laisse s'envoler

Fa Sol

Elle me chante souvent que j'ai tord d'essayer

Do

De les retenir, de les retenir

Lam

Je l'aime à mourir

 

Do

Pour monter dans sa grotte cachée sous les toits

Mim

Je dois clouer des notes à mes sabots de bois

Lam

Je l'aime à mourir

 

Rém

Je dois juste m'asseoir je ne dois pas parler

Fa Sol

Je ne dois rien vouloir, je dois juste essayer

Do

Je lui appartenir, de lui appartenir

Lam

Je l'aime à mourir

 

Mi Do

Elle a dû faire toute les guerres

Sol Do

Pour être si forte aujourd'hui

Mi Lam

Elle a dû faire toutes les guerres

Fa Do

De la vie… Et l'amour aussi

 

Do

Moi je n'étais rien mais voilà qu'aujourd'hui

Mim

Je suis le gardien du sommeil de ses nuits

Lam

Je l'aime à mourir

Rém

Vous pouvez détruire tout ce qui vous plaira

Fa Sol

Elle n'a qu'à ouvrir l'espace de ses bras

Do

Pour tout reconstruire, pour tout reconstruire

Lam

Je l'aime à mourir

 

 

 

je te laisse trouver toi même l'arpège, la il y a juste les accords a jouer

 

http://www.abc-tabs.com/cache/tab_fr_4016.htm

Lien à poster
Partager sur d’autres sites

ben perso je l'ai trouver tous seul bon si tu le veut le plus simple sa fait pour le C :

 

-----0-----------0-------------
--------1-----------1----------
-----------0----------0-------
-------------------------------
--3----------3-----------------


 

sa c'est la version la plus simple sinon tu peut alterner les basses par exemple pour le C :

 


-----0-----------0-------------
--------1-----------1----------
-----------0----------0-------
---------------2---------------
--3----------------------------

 

c'est comme dans la chanson je crois bien que un moment il rajoute des accords au milieu mais je ne sais pas lesquels si quelqu'un les as

Lien à poster
Partager sur d’autres sites

voila ce que j'ai trouver pour ma part : /

 

capo 5 

|---0---------0----------0----------0------|
|-----1---------1----------1----------1----|
|-------0---------0----------0----------0--|
|-----------2--------------------0---------|x 2
|-3-------------------2--------------------|
|------------------------------------------|

|---0---------0---------0---------0------|
|-----1---------1---------1---------1----|
|-------0---------0---------0---------0--|
|-----------2-------------------2--------|
|-3-------------------3------------------|
|----------------------------------------|

|---0---------0---------0---------0------|
|-----1---------1---------1---------1----|
|-------0---------0---------0---------0--|
|-----------2-------------------2--------|
|-2-------------------2------------------|
|----------------------------------------|

|----0----------0----------|
|------1----------0--------|
|--------2----------2------|
|------------2-------------|x 2
|-0------------------------|
|--------------------------|

|----1----------1----------1----------1--------|
|------3----------3----------3----------3------|
|--------2----------2----------2----------2----|
|-0----------0----------3----------3-----------|
|----------------------------------------------|
|----------------------------------------------|

|----1---------1------------------3-------|
|------1---------1---------0--------0-----|
|--------2---------2-----4---0--------0---|
|-----------3-------------------0---------|
|-----------------------------------------|
|-3------------------5--------------------|

|---0---------0----------0----------0------|
|-----1---------1----------1----------1----|
|-------0---------0----------0----------0--|
|-----------2--------------------0---------|
|-3-------------------2--------------------|
|------------------------------------------|

|----0----------0----------|
|------1----------0--------|
|--------2----------2------|
|------------2-------------|x 2
|-0------------------------|
|--------------------------|

|---0---------0---------0---------0------|
|-----1---------1---------1---------1----|
|-------0---------0---------0---------0--|
|-----------2-------------------2--------|
|-2-------------------2------------------|
|----------------------------------------|

|----0----------0----------|
|------1----------0--------|
|--------2----------2------|
|------------2-------------|x 2
|-0------------------------|
|--------------------------|

|----1----------1----------1----------1--------|
|------3----------3----------3----------3------|
|--------2----------2----------2----------2----|
|-0----------0----------3----------3-----------|
|----------------------------------------------|
|----------------------------------------------|

|----1---------1---------3--------3-------|
|------1---------1---------0--------0-----|
|--------2---------2---------0--------0---|
|-----------3-------------------0---------|
|-----------------------------------------|
|-3------------------5--------------------|

|---0---------0----------0----------0------|
|-----1---------1----------1----------1----|
|-------0---------0----------0----------0--|
|-----------2--------------------0---------|
|-3-------------------2--------------------|
|------------------------------------------|

|----0----------0----------|
|------1----------0--------|
|--------2----------2------|
|------------2-------------|x 2
|-0------------------------|
|--------------------------|

|----0---------0----------0---------0------|
|------0---------0----------1---------1----|
|--------1---------1----------2---------0--|
|-----------2--------------------2---------|
|-2--------------------0-------------------|
|------------------------------------------|

|---3---------3---------0--------0-----|
|-----0---------0---------1--------1---|
|-------0---------0---------0--------0-|
|----------0-------------------2-------|
|---------------------3----------------|
|-3------------------------------------|

|----0---------0----------0---------0------|
|------0---------0----------1---------1----|
|--------1---------1----------2---------0--|
|-----------2--------------------2---------|
|-2--------------------0-------------------|
|------------------------------------------|

|---1---------1------|
|-----1---------1----|
|-------3---------3--|
|----------3---------|
|-1------------------|
|--------------------|




|---0---------0----------0----------0------|
|-----1---------1----------1----------1----|
|-------0---------0----------0----------0--|
|-----------2--------------------0---------|x 2
|-3-------------------2--------------------|
|------------------------------------------|

|---0---------0---------0---------0------|
|-----1---------1---------1---------1----|
|-------0---------0---------0---------0--|
|-----------2-------------------2--------|
|-3-------------------3------------------|
|----------------------------------------|

|---0---------0---------0---------0------|
|-----1---------1---------1---------1----|
|-------0---------0---------0---------0--|
|-----------2-------------------2--------|
|-2-------------------2------------------|
|----------------------------------------|

|----0----------0----------|
|------1----------0--------|
|--------2----------2------|
|------------2-------------|x 2
|-0------------------------|
|--------------------------|

|----1----------1----------1----------1--------|
|------3----------3----------3----------3------|
|--------2----------2----------2----------2----|
|-0----------0----------3----------3-----------|
|----------------------------------------------|
|----------------------------------------------|

|----1---------1------------------3-------|
|------1---------1---------0--------0-----|
|--------2---------2-----4---0--------0---|
|-----------3-------------------0---------|
|-----------------------------------------|
|-3------------------5--------------------|

|---0---------0----------0----------0------|
|-----1---------1----------1----------1----|
|-------0---------0----------0----------0--|
|-----------2--------------------0---------|
|-3-------------------2--------------------|
|------------------------------------------|

|----0----------0----------|
|------1----------0--------|
|--------2----------2------|
|------------2-------------|x 2
|-0------------------------|
|--------------------------|

|---0---------0---------0---------0------|
|-----1---------1---------1---------1----|
|-------0---------0---------0---------0--|
|-----------2-------------------2--------|
|-2-------------------2------------------|
|----------------------------------------|

|----0----------0----------|
|------1----------0--------|
|--------2----------2------|
|------------2-------------|x 2
|-0------------------------|
|--------------------------|

|----1----------1----------1----------1--------|
|------3----------3----------3----------3------|
|--------2----------2----------2----------2----|
|-0----------0----------3----------3-----------|
|----------------------------------------------|
|----------------------------------------------|

|----1---------1---------3--------3-------|
|------1---------1---------0--------0-----|
|--------2---------2---------0--------0---|
|-----------3-------------------0---------|
|-----------------------------------------|
|-3------------------5--------------------|

|---0---------0----------0----------0------|
|-----1---------1----------1----------1----|
|-------0---------0----------0----------0--|
|-----------2--------------------0---------|
|-3-------------------2--------------------|
|------------------------------------------|

|----0----------0----------|
|------1----------0--------|
|--------2----------2------|
|------------2-------------|x 2
|-0------------------------|
|--------------------------|

|----0---------0----------0---------0------|
|------0---------0----------1---------1----|
|--------1---------1----------2---------0--|
|-----------2--------------------2---------|
|-2--------------------0-------------------|
|------------------------------------------|

|---3---------3---------0--------0-----|
|-----0---------0---------1--------1---|
|-------0---------0---------0--------0-|
|----------0-------------------2-------|
|---------------------3----------------|
|-3------------------------------------|

|----0---------0----------0---------0------|
|------0---------0----------1---------1----|
|--------1---------1----------2---------0--|
|-----------2--------------------2---------|
|-2--------------------0-------------------|
|------------------------------------------|

|---1---------1------|
|-----1---------1----|
|-------3---------3--|
|----------3---------|
|-1------------------|
|--------------------|

 

http://www.ultimate-guitar.com/tabs/f/francis_cabrel/je_laime_a_mourir_tab.htm

Lien à poster
Partager sur d’autres sites
  • 9 months later...

J'ai trouvé sa ;)

 

 

Je l'aime à mourir      


                   Francis Cabrel


Indications :

Capo 5ème case
T= 70




    C                                  C                                
E||----0-------0-------0-------0-----|----0-------0-------0-------0-----|
B||------1-------1-------0-------0---|------1-------1-------0-------0---|
G||--------0-------0-------0-------0-|--------0-------0-------0-------0-|
D||----------2---------------0-------|----------2---------------0-------|
A||--3---------------2---------------|--3---------------2---------------|
E||----------------------------------|----------------------------------|


   C                                                                   
|-----0-------0-------0-------0-----|----0-------0-------0-------0-----|
|-------1-------1-------1-------1---|------0-------0-------0-------0---|
|*--------0-------0-------0-------0-|--------0-------0-------0-------0-|
|*----------2---------------2-------|----------0---------------0-------|
|---3---------------3---------------|--2---------------2---------------|
|-----------------------------------|----------------------------------|


 Am                                 Dm                               
----0-------0-------0-------0-----|----1-------1-------1-------1-----|
------1-------1-------1-------1---|------3-------3-------3-------3---|
--------2-------2-------2-------2-|--------2-------2-------2-------2-|
----------2---------------2-------|--0-------0-------0-------0-------|
--0---------------0---------------|----------------------------------|
----------------------------------|----------------------------------|


 F               G                  C                                
----1-------1-------3-------3-----|----0-------0-------0-------0-----|
------1-------1-------3-------3---|------1-------1-------0-------0---|
--------2-------2-------4-------4-|--------0-------0-------0-------0-|
--3-------3-------5-------5-------|----------2---------------0-------|
----------------------------------|--3---------------2---------------|
----------------------------------|----------------------------------|


 Am                                   Am              Am               
----0-------0-------0-------0------||----0-------0-------0-------0-----|
------1-------1-------1-------1----||------1-------1-------1-------1---|
--------2-------2-------2-------0-*||--------2-------2-------0-------0-|
----------2---------------2-------*||----------2---------------2-------|
--0---------------0----------------||--0---------------0---------------|
-----------------------------------||----------------------------------|


 E               Am                 G               C                
----0-------0-------0-------0-----|----3-------3-------0-------0-----|
------0-------0-------1-------1---|------3-------3-------1-------1---|
--------1-------1-------2-------0-|--------0-------0-------0-------0-|
--------------------------2-------|--------------------------2-------|
----------2-------0---------------|----------2-------3---------------|
--0-------------------------------|--3-------------------------------|


 E               Am                 B                         
----0-------0-------0-------0-----|----1-------1-----1--------|
------0-------0-------1-------1---|------3-------3---3--------|
--------1-------1-------2-------0-|--------3-------3-3--------|
--------------------------2-------|----------3-------3--------|
----------2-------0---------------|--1---------------1--------|
--0-------------------------------|---------------------------|


 C                                  C                                
----0-------0-------0-------0-----|----0-------0-------0-------0-----|
------1-------1-------0-------0---|------1-------1-------0-------0---|
--------0-------0-------0-------0-|--------0-------0-------0-------0-|
----------2---------------0-------|----------2---------------0-------|
--3---------------2---------------|--3---------------2---------------|
----------------------------------|----------------------------------|


   C                                                                   
|-----0-------0-------0-------0-----|----0-------0-------0-------0-----|
|-------1-------1-------1-------1---|------0-------0-------0-------0---|
|*--------0-------0-------0-------0-|--------0-------0-------0-------0-|
|*----------2---------------2-------|----------0---------------0-------|
|---3---------------3---------------|--2---------------2---------------|
|-----------------------------------|----------------------------------|


 Am                                 Dm                               
----0-------0-------0-------0-----|----1-------1-------1-------1-----|
------1-------1-------1-------1---|------3-------3-------3-------3---|
--------2-------2-------2-------2-|--------2-------2-------2-------2-|
----------2---------------2-------|--0-------0-------0-------0-------|
--0---------------0---------------|----------------------------------|
----------------------------------|----------------------------------|


 F               G                  C                                
----1-------1-------3-------3-----|----0-------0-------0-------0-----|
------1-------1-------3-------3---|------1-------1-------0-------0---|
--------2-------2-------4-------4-|--------0-------0-------0-------0-|
--3-------3-------5-------5-------|----------2---------------0-------|
----------------------------------|--3---------------2---------------|
----------------------------------|----------------------------------|


 Am                                   Am                               
----0-------0-------0-------0------||----0-------0-------0-------0-----|
------1-------1-------1-------1----||------1-------1-------1-------1---|
--------2-------2-------2-------0-*||--------2-------2-------2-------2-|
----------2---------------2-------*||----------2---------------2-------|
--0---------------0----------------||--0---------------0---------------|
-----------------------------------||----------------------------------|


 E               Am                 G               C                
----0-------0-------0-------0-----|----3-------3-------0-------0-----|
------0-------0-------1-------1---|------3-------3-------1-------1---|
--------1-------1-------2-------0-|--------0-------0-------0-------0-|
--------------------------2-------|--------------------------2-------|
----------2-------0---------------|----------2-------3---------------|
--0-------------------------------|--3-------------------------------|


 E               Am                 B                         
----0-------0-------0-------0-----|----1-------1-----1--------|
------0-------0-------1-------1---|------3-------3---3--------|
--------1-------1-------2-------2-|--------3-------3-3--------|
--------------------------2-------|----------3-------3--------|
----------2-------0---------------|--1---------------1--------|
--0-------------------------------|---------------------------|


 C                                  C                                
----0-------0-------0-------0-----|----0-------0-------0-------0-----|
------1-------1-------0-------0---|------1-------1-------0-------0---|
--------0-------0-------0-------0-|--------0-------0-------0-------0-|
----------2---------------0-------|----------2---------------0-------|
--3---------------2---------------|--3---------------2---------------|
----------------------------------|----------------------------------|


 C                  
--0----------------||
--1----------------||
--0----------------||  **FIN**
--2----------------||
--3----------------||
-------------------||

Lien à poster
Partager sur d’autres sites

en fait il ya aussi (et vant tout) des partitions/tablatures directment sur le site :

http://www.tabs4acoustic.com/tablatures-partitions.php

 

en l'occurence je l'aime à mourir est là:

http://www.tabs4acoustic.com/tablatures-partitions/cabrel-francis-partitions-guitare/francis-cabrel-je-l-aime-a-mourir.php

 

:guitare:

 

 

 

Sujet fusionné par Bloody fingers.

Lien à poster
Partager sur d’autres sites
  • 8 years later...

Veuillez vous connecter pour commenter

Vous pourrez laisser un commentaire après vous êtes connecté.



Connectez-vous maintenant
×
×
  • Créer...