Aller au contenu

[Guns N' Roses] Paradise city


Messages recommandés

Guns'N'Roses - Paradise City

 

Légende:

/ = Silence

Ho = Hammer on

Po = Pull Off

S = Slide

 

Intro Izzy :

 

e--2---3-------3------3---------------3---------3-----3-------------3---------------3-------2----------------------------------------------|
b--3-----3--------3------3---------------1---------1-----1------------1---------------0-----0---0-------0-----0-------------------------------|
g--0-------0----------------0---0-----------0---------------0--0--------0----0----------0---0-----0Ho2----0-----------0-----------------------|
d--0----------------------------0Ho2---------------------------0Ho2----------0Ho2-----------0-------------------0Ho2--------------------------|
a--2----------------------------------------------------------------------------------------2---------------------------------------------------|
e--3----------------------------------------------------------------------------------------3---------------------------------------------------|

x6

 

Rythmique:

 

e-------3--------------------------------3------------------------------------------------------------------------------------------------------|
b-------3--------5-------10-------5------3----------------------------------------------------------------------------------------------------------|
g-------0--------5-------10-------5------0----------------------------------------------------------------------------------------------------------|
d---x-x-0---x-x--5--x-x--10--x-x--5-x-x--0---------------------------------------------------------------------------------------------------------------------|
a---x-x-x---x-x--3--x-x--8---x-x--3-x-x--x--------------------------------------------------------------------------------------------------------------------|
e---x-x-3---x-x-----x-x------x-x----x-x--3----------------------------------------------------------------------------------------------------------------|

x4

 

Slash 1st Solo:

 

e--------------------------------------------------------------------------------------------------------------------------------------------------------------------------------15-|
b---------------------------15------------------------------------15-----------------13-13-13----------------------------------15----------------------------15------------13-13---13-13-12Ho13--12|
g-----------12-12-------------14-14-12-------------12-12---------------14-14--12-----------------14-12----14-------12-12-----------14-14-12--------12-12-------14-14--12--------------------|
d--12Ho14----------14-12----------------14-12Ho14----------14-12---------------------------------------14---12Ho14--------14-12------------14-12Ho14-----14-12----------14-----------------|
a--------------------------------------------------------------------------------------------------------------------------------------------|
e---------------------------------------------------------------------------------------------------------------------------------------------|

 

Slash After Solo:

 

1ére partie:

 

e--------------------------------------------------------------------------------------------------------------------------------------------|
b--------------------------------------------------------------------------------------------------------------------------------------------|
g--------------------------3-------------------------5-3--------------------------3------------------------/--5-3-----------------------------------|
d------------------------5-3-------------------------5-3------------------------5-3-----------------5-/-3--/--5-3-------------------------------------|
a--5--3-4-5--3-4-5-3-5-3-5-----5--3-4-5--3-4-5-3-5-3------5--3-4-5--3-4-5-3-5-3-5------5--3-4-5-3-4-5-/-3------------------------------------------------------------|
e---------------------------------------------------------------------------------------------------------------------------------------------|

 

2nd partie:

 

e--------------------------------------------------------------------------------------------------------------------------------------------|
b--------------------------------------------------------------------------------------------------------------------------------------------|
g-------------------------3-------------------------5-3--------------------------3----------------5------5--3-5--3------------------------------------|
d--5--3-4-5-5-3-5-/--5-5-5-----5--3-4-5-5-3-5-/--5-5-----5--3-4-5-5-3-5-/--5-5-5---5-/-3-/-5-/-3-/----------------5-5------------------------------------------------------------------|
a------------------5----------------------------5-------------------------5---------------------------------------------------------------------|
e--------------------------------------------------------------------------------------------------------------------------------------------|

 

Jouer la 1ére partie puis la 2éme partie 2 fois.

 

Izzy After Slash's solo :

(La rythmique enchaine sur cette partie puis reprend plus tard.)

 

1ére partie:

 

e--------------------------------------------------------------------------------------------------------------------------------------------|
b--------------------------------------------------------------------------------------------------------------------------------------------|
g--------------------------------------------------------------------------------------------------------------------------------------------|
d--------------------------------------------------------------------------------------------------------------------------------------------|
a-------------------------1------------------------3-1-----------------------1------------------------3-1-----------------------------------------------------------|
e--3--1-2-3-1-2-3-1-3-1-3---3--1-2-3-3-1-2-3-1-3-1-----3--1-2-3-1-2-3-1-3-1-3---3--1-2-3-3-1-2-3-1-3-1-----------------------------------------------------------------------------------|

 

2éme partie:

 

e--------------------------------------------------------------------------------------------------------------------------------------------|
b-------------------------3------------------------5-3-----------------------3----------------3---5------------------------------------------------|
g-------------------------3------------------------5-3-----------------------3----------------3---5------------------------------------------------|
d-------------------------3------------------------5-3-----------------------3----------------3---5------------------------------------------------|
a-------------------------1------------------------3-1-----------------------1----------------1---3---3---3-1----------------------------------------------------------|
e--3--1-2-3-1-2-3-1-3-1-3---3--1-2-3-3-1-2-3-1-3-1-----3--1-2-3-1-2-3-1-3-1-3---3--1-2-3----------------------1-3-------------------------------------------------------------------|

 

Toujours pareil, jouez la 1ére partie puis la 2nd partie 2 fois.

 

Rythmique 2x

After Slash's solo 1ére/ 2éme partie 2x

Rythmique 2x

 

Slash 2nd Solo :

 

 

e--------------------------------------1-----6----------5-------------5-8---------------------------------------------3-------3--------3--------------------10-----------------------|
b------------------------------------3--1S6------------------5S8--8--8----8-5-8---5-8-----------------------------5----3---5----3---5----3---5--5-------------------------------|
g----------3-----5--3-3---5--3-5--------------5--3Ho4----------------------------7----7-5---7-5-------------------5-----3--5-----3--5-----3--5----5-/-10-11---12-10Ho11---------------------|
d----3-3--5--5-3-------5------------------------------------------------------------------7----7-5-----------------------------------------------------------------------------|
a---------------5----------------------------------------------------------------------------------7-6-5-3-5--3----------------------------------------------------------------|
e13S1-----------------------------------------------------------------------------------------------------------5----------------------------------------------------------------|

 

La suite demain

Modifié par Arthess
Lien à poster
Partager sur d’autres sites

Veuillez vous connecter pour commenter

Vous pourrez laisser un commentaire après vous êtes connecté.



Connectez-vous maintenant
×
×
  • Créer...