Aller au contenu

[Halestorm] Here's to us


Messages recommandés

Hello les amis gratteux, voici mon premier petit arrangement.

 

La chanson n'est pas complexe.

J'ai fais un mix de ce que j'ai vu à droite et à gauche pour en faire quelque chose de simple pour les débutants.

Par contre, il y a un barré. On peut s'affranchir du barré mais, dans ce genre de morceau, les basses sont essentielles.

 

C'est donc une version simplifiée mais on peut trouver quelque chose de plus complet proposé par Joe et la ravissante Lzzy du groupe ici :

http://www.youtube.com/watch?v=Cc1eK8KYXyQ

 

Enregistrement live qui déchire par ici :

http://www.youtube.com/watch?v=PLfYkMxvbyA

 

Si vous souhaitez jouer cette version live, @Twixy (qui s'ennuyait selon ses dires), vous à retranscrit couplet et refrain un peu plus bas ! Merci à lui ! :clap:

 

C F Am G
e|------------------------------------3-------|
B|------1----------1---------1------3---3-----|
G|--------0------2---2---------2----------0---| Jouer 6 fois (intro + couplet)
D|----2--------3-----------2------------------|
A|--3--------------------0--------------------|
E|--------------------------------------------|

 

Pour le refrain, mêmes accord dans un autre ordre

 

C G Am F
e|-0---0-0-|-3---3-3-|-0---0-0-|-1-----------|
B|-1---1-1-|-3---3-3-|-1---1-1-|-1-----------|
G|-0---0-0-|-0---0-0-|-2---2-2-|-2-----------|
D|-2---2-2-|-0---0-0-|-2---2-2-|-3-----------|
A|-3---3-3-|-2---2-0-|-0---0-0-|-3-------3-5-|
E|---------|-3---3-3-|---------|-1---3-5-----|

C G Am F
e|-0---0-0-|-3---3-3-|-0---0-0-|-1-----------|
B|-1---1-1-|-3---3-3-|-1---1-1-|-1-----------|
G|-0---0-0-|-0---0-0-|-2---2-2-|-2-----------|
D|-2---2-2-|-0---0-0-|-2---2-2-|-3---3-1-----|
A|-3---3-3-|-2---2-0-|-0---0-0-|-3-------3-1-|
E|---------|-3---3-3-|---------|-1-----------|

 

Un accord par mesure, tranquille, avec à chaque fois 1 blanche et 2 noires.

A noter les deux variantes sur la dernière mesure à chaque fois, le petit truc qui apporte de la couleur. Donc pour le Fa, c'est 1 blanche et 4 croches

 

C					  F
We could just go home right now

Am				 G
Or maybe we could stick around

C			 F	   Am	   G
For just one more drink, oh yeah

C				F
Get another bottle out

Am					G	  
Let's shoot the shit, sit back down

C			 F	   Am		G
For just one more drink, oh yeah

CHORUS
 C
Here's to us

 G
Here's to love

	  Am			 F
All the times that we fucked up

 C
Here's to you

 G
Fill the glass

	  Am				 F
Cuz the last few days have kicked my ass

	C			 G
So let's give em hell

	 Am		 F
Wish everybody well

 C	 G  
Here's to us

 Am	F
Here's to us

INTRO/VERSE x6

CHORUS

C
Here's to us.

G
Here's to love.

  Am			 F
All the times that we've messed up.

	  C
Here's to you.

 G
Fill the glass.

   Am					F				
Cuz the last few nights have kicked my ass!

C		  G	
If they give you hell,

Am			  F
Tell them Go fuck themselves.

 C		  G
Here's to us.

 Am		 F		  
Here's to us.

BRIDGE

  Dm	
Here's to all that we kissed

  F
And to all that we missed,

	  C						   G
To the biggest mistakes that we just just wouldn't trade.

   Dm
To us breakin' up,

   F
Without us breakin down.

  C				 G
To whatever's comin' our way!

CHORUS

 C	
Here's to us.

 G
Here's to love.

Am				F
All the times that we've fucked up.

 C
Here's to you.

 G
Fill the glass.

Am				 F
Cuz the last few days have kicked my ass.

C			G
Oh Let's give 'em hell.

  Am		   F
Wish everybody well.

  C
Here's to us.

  G
Here's to love.

 Am			 F
All the times that we messed up.

  C
Here's to you.

  G
Fill the glass.

  Am				F
Cuz the last few nights have kicked my ass!

 C			G
If they give you hell,

  Am
Tell them

Go fuck themselves.
(Go fuck themselves.)

  C		 G
Here's to us.
(Here's to us.)


 Am	 F
Here's to us
(Here's to us.)

 C	  
Here's to us.

 G
Here's to love.

 Am	 F
Here's to us.
(Wish everybody well.)

 C
Here's to us.

 G
Here's to love.

 Am	  F
Here's to us


Here's to us ...

Modifié par SuN
Lien à poster
Partager sur d’autres sites

Au plaisir... Je kiffe le groupe et cette chanson. J'espère pouvoir bien la maîtriser dans sa version plus complexe (celle de la vidéo avec Lzzy et Joe) pour ensuite pourquoi pas trouver une chanteuse capable d'arranger à sa sauce la voix et faire une petite cover.

Lien à poster
Partager sur d’autres sites

Merci, super découverte, et très sympa à jouer :)

Juste, j'ai refait la tablature du couplet à qui il manquait pas mal de notes :

....C...........F...........Am..........G.........
e|----------------------------------------3------|
B|------1-----------1-----------1-----------3-1--|
G|------0---0-----2-2---2-------2---2------------|
D|----2---2-----3-----3-------2---2--------------|
A|--3-----------------------0--------------------|
E|--------------------------------------3--------|

Ça sonne exactement comme dans la vidéo, comme ça ! Et c'est bien plus joli

Lien à poster
Partager sur d’autres sites

Juste, j'ai refait la tablature du couplet à qui il manquait pas mal de notes :

 

comme je l'ai dit, j'ai mis la version simple, celle de l'album. Mais merci pour ce complément !

 

La version album :

Modifié par Photoff
Lien à poster
Partager sur d’autres sites

Je sais bien, mais la version du live sonne 1000 fois mieux ;) (pour moi en tout cas)

Et tant que j'y suis, j'ai même refait la tablature du refrain (ouais, j'm'ennuie, ouais...)

...C.........G.........Am........F.............
e|-0---0-0-|-3---3-3-|-0---0-0-|-1-1----------|
B|-1---1-1-|-3---3-3-|-1---1-1-|-1-1----------|
G|-0---0-0-|-0---0-0-|-2---2-2-|-2-2----------|
D|-2---2-2-|-0---0-0-|-2---2-2-|-3-3----------|
A|-3---3-3-|-2---2-0-|-0---0-0-|-3-3------3h5-|
E|---------|-3---3-3-|---------|-1-1--3h5-----|

...C.........G.........Am........F.............
e|-0---0-0-|-3---3-3-|-0---0-0-|-1-1----------|
B|-1---1-1-|-3---3-3-|-1---1-1-|-1-1----------|
G|-0---0-0-|-0---0-0-|-2---2-2-|-2-2----------|
D|-2---2-2-|-0---0-0-|-2---2-2-|-3-3--3p2-----|
A|-3---3-3-|-2---2-0-|-0---0-0-|-3-3------3h0-|
E|---------|-3---3-3-|---------|-1-1----------|

Lien à poster
Partager sur d’autres sites

Je sais bien, mais la version du live sonne 1000 fois mieux ;) (pour moi en tout cas)

Et tant que j'y suis, j'ai même refait la tablature du refrain (ouais, j'm'ennuie, ouais...)

 

Génial, comme ça, il y a les versions pour tout les niveaux ! Merci en tout cas ! :)

Lien à poster
Partager sur d’autres sites

Je viens de remarquer à l'instant qu'à la fin de la vidéo, il explique les petits riffs du Fa du refrain...

J'ai passé un un quart d'heure à me taper le refrain en boucle jusqu'à trouver ces riffs plus ou moins à l'oreille, pour rien T.T

Lien à poster
Partager sur d’autres sites

J'aime bien, c'est très sympa ! La partie guitare est pas compliquée et c'est parfait pour se faire plaisir ;)

Et la p'tite Lizzy elle assure !

Et pourquoi tu t'y collerais pas toi au chant au lieu de demander à une chanteuse de s'y coller ? Ce serait super justement que ce soit une voix d'homme pour changer. Et un super entrainement pour toi comme tu aimes le morceau tu vas tout déchirer forcément parce que l'intention y sera déjà !

Lien à poster
Partager sur d’autres sites

T'es pas obligé de partager :) mais un morceau qu'on aime, c'est là qu'on donne tout et j'pense que les aigus sur le refrain quand elle gueule un peu c'est un bon entrainement aussi. Mais attends que tes voisins soient partis en vacances :p

Lien à poster
Partager sur d’autres sites

T'es pas obligé de partager :) mais un morceau qu'on aime, c'est là qu'on donne tout et j'pense que les aigus sur le refrain quand elle gueule un peu c'est un bon entrainement aussi. Mais attends que tes voisins soient partis en vacances :p

 

Oui, elle a une voix de malade... Elle m'impressionne. d'ailleurs, je te conseille "Mz Hide" du groupe où elle change de voix entre le refrain et le couplet. Au début je pensais à un arrangement de studio, mais en voyant du live, ben non.

Lien à poster
Partager sur d’autres sites

Veuillez vous connecter pour commenter

Vous pourrez laisser un commentaire après vous êtes connecté.



Connectez-vous maintenant
×
×
  • Créer...