Aller au contenu

[Harry Potter] Thème principal


Messages recommandés

Bonsoir tout le monde.

 

Aprés avoir travailler le theme pirates des caraïbes, j'aimerais m'attaqué à celui d'harry potter :p

J'ai pus trouver un petit bout de l'intro, mais je ne suis pas sur ^^

 

 

e ----0--3--2--0--7--5--2--0-----------------------------

b -0--------------------------------------------------------

 

je suis bloquer ici ^^', un petit peu d'aide ne serait pas de refus :p

 

Merci d'avance

Lien à poster
Partager sur d’autres sites
  • 2 weeks later...

Source : Ultimate Guitar

 

E-------0--3--2--0--7--5--2---------0--3--2-----2-------------------|
B----0---------------------------------------4-----0-----0----------|
G-----------------------------------------------------0-------------|
D-------------------------------------------------------------------|
A-------------------------------------------------------------------|
E-------------------------------------------------------------------|

E---0--3--2--0--7--10--9--8--5--8--7--6-----3--0-----0-----------------|
B-0----------------11-----9-----9----------------0---------------------|
G------------------12----10----10--------3-----------------------------|
D----------------------------------------------------------------------|
A----------------------------------------------------------------------|
E----------------------------------------------------------------------|


E--3-7---3-7---3-8--7-6-----2-3--7-6-----7----|
B--------------------------------------0------|
G------------------------------------3--------|
D---------------------------------------------|
A---------------------------------------------|
E---------------------------------------------|

E--3-7---3-7---3-10--9--8--5--8--7--6-----3--0------------------------------|
B----------------11-----9-----9--------0-----------0------------------------|
G----------------12----10----10------------------0--------------------------|
D---------------------------------------------------------------------------|
A---------------------------------------------------------------------------|
E---------------------------------------------------------------------------|

(You may need to listen to the song for the next bit as it's mainly background to 
other instruments)

E-0-------0------------------------|
B----0-------0--1------------------|
G---------------------4-----0------|
D------------------4-----2------4--|
A----------------------------------|
E----------------------------------|

E------0---3--2--0---7--5--2------0--3--2------2--------|
A---0---------------------------------------3-----0-----|
D-------------------------------------------------------|
G-------------------------------------------------------|
B-------------------------------------------------------|
E-------------------------------------------------------|

E----0--3--2--0----7--10---9--8----4--8--7--6------3--0--------|
B--0-----------------------------------------------------------|
G------------------------------------------------3-------------|
D--------------------------------------------------------------|
A--------------------------------------------------------------|
E--------------------------------------------------------------|

E--3--7----3--7----3--8----7--6----2--3----7--6----------7------------------|
B-----------------------------------------------------1---------------------|
G-------------------------------------------------3-------------------------|
D---------------------------------------------------------------------------|
A---------------------------------------------------------------------------|
E---------------------------------------------------------------------------|

E--3--7----3--7---3--10----9--8----5--8---7--6-------3---0------------------|
B---------------------------------------------------------------------------|
G------------------------------------------------3--------------------------|
D---------------------------------------------------------------------------|
A---------------------------------------------------------------------------|
E---------------------------------------------------------------------------|

 

Topic renommé et déplacé par Bloody fingers

Lien à poster
Partager sur d’autres sites
  • 10 months later...
  • 1 year later...

Veuillez vous connecter pour commenter

Vous pourrez laisser un commentaire après vous êtes connecté.



Connectez-vous maintenant
×
×
  • Créer...