Aller au contenu

[Hymne] USA (star-spangled banner)


Invité jeangabriel63

Messages recommandés

Invité jeangabriel63

Bonjour à tous:j'aimerais apprendre le solo(guitare electrique) de l'hymne américain:

 

The Star-spangled Banner.Merci d'avance pour les aides que vous m'apporterez.

Lien à poster
Partager sur d’autres sites

e|------------------------------------------------------|
b|---------------3--------------------------------------|
g|-----------3-----5-3-----------/7--5-3-2---2-3-3------|
D|--3------3-------------2-3--3-3----------5-------3----|
A|----5--5-------------5-----------------------------5--|
E|-----6-----------------------------------------------6|
   |===================== x2 =========================|

e|------------------------------------------------------|
b|------------------------------------------------------|
g|--7--7-7--8--10--10---8--7-5--7--8-8--8--7--5-3--2----|
D|---------------------------------------------------5--|
A|------------------------------------------------------|
E|------------------------------------------------------|

e|------------------------------------------------------|
b|------------------------------------------------------|
g|-2-3------------3--3-3-3--2--------/5--8-7-5-3-3--2---|
D|--------2-3--3--------------5--5--5-------------------|
A|------5-----------------------------------------------|
E|------------------------------------------------------|

e|------------------------------------------------------|
b|------------------------------------------------------|
g|------3---5-7-8-10---3-5-7--8-5-3---------------------|
D|--3-3-------------------------------------------------|
A|------------------------------------------------------|
E|------------------------------------------------------|

------------------
| /  slide up
| \  slide down
------------------

 

Source : UG

Lien à poster
Partager sur d’autres sites

Veuillez vous connecter pour commenter

Vous pourrez laisser un commentaire après vous êtes connecté.



Connectez-vous maintenant
×
×
  • Créer...