Aller au contenu

[Jean-Jacques Goldman] En passant


Messages recommandés

Bonjour, je suis un guitariste fan de Goldman et je cherche désespérément le solo de la magnifique chanson "En passant" en format GP, je suis équipé de Guitar Pro 5 !!!! alors si quelqu'un peu me faire parvenir cette tablature ou me renseigner merci de me répondre !!!

 

Sur ce !! bonne gratte à tous !! ^^

Amemnon.

 

 

merci de formater les titres selon les règles et de poster les demandes au bon endroit

Lien à poster
Partager sur d’autres sites
Accords utilisés :
C       :X32010
F/A     :X03211
G/B     :XB0033
Am      :X02210
G6      :320000
F       :133211
Gsus4   :3x0013
G       :3X0003
Dm7     :XX0211
C/E     :XX2010
Cm      :X35543
Bb6     :X13333
Ab      :466544
Eb      :X5777X
Fm      :133111
Ddim    :XX0101
F       :133211
F/G     :333211
intro : (une seule note: C (basse))
C           F/A         G/B     C
Toutes les ébènes ont rendez-vous
Am          G6            F        Gsus4  G
Lambeaux de nuit quand nos ombres s'éteignent...
Am             F/A        G/B      C
Des routes m'emmènent
je ne sais où.
Dm7                C/E      Am        Gsus4 G
J'avais les yeux perçants avant
je voyais tout...
C            F/A        G/B     C
Doucement reviennent
à pas de loup
Am          G6           F      Gsus4  G
Reines endormies
nos déroutes anciennes
Am              F/A        G/B        C
Coulent les fontaines jusqu'où s'échouent
Dm7             C/E            Am        Gsus4 G
Les promesses éteintes et tous nos voeux dissous...
Am          G6            F           C
C'était des ailes et des rêves en partage
Am          G6          F      Gsus4 G
C'était des hivers et jamais le froid
Cm           Bb6           Ab       Eb
C'était des grands ciels épuisés d'orages.
Fm          Cm      Ddim       Gsus4 G    F F/G
C'était des paix que l'on ne signait pas.
C           F/A         G/B       C
Des routes m'emmènent
je ne sais où
Dm7        C/E                  Am   G        F      F/G
J'ai vu des oiseaux
des printemps
des cailloux
C
En passant
C            F/A     G/B                  C
-----------------------------------------------------------
-----------------------------------------------------------
-----------------------------------------------------------
----------10-10------12-10-12-b(14)br(12)-10-10------------
--10-h-12--------------------------------------------------
-----------------------------------------------------------
Am          G6                                  Gsus4 G
-----------------------------------------------------------
-----------------------------------------------------------
-------------12-12-12-h-14-po-12---------------------------
--(12)sl-14-------------------------12-sl--14-12-----------
-----------------------------------------------------------
-----------------------------------------------------------
C           F/A         G/B     C
Toutes nos défaites ont faim de nous
Am          G6            F        Gsus4  G
Serments résignés sous les maquillages
Am             F/A        G/B      C
Lendemains de fête
plus assez saouls
Dm7                C/E      Am        Gsus4 G
Pour avancer
lâcher les regrêts trop lourds
Am          G6            F           C
Déjà ces lents
ces tranquilles naufrages
Am          G6          F      Gsus4 G
Déjà ces cages qu'on n'attendait pas
Cm           Bb6           Ab       Eb
Déjà ces discrets manques de courage
Fm          Cm      Ddim       Gsus4 G    F F/G
Tout ce qu'on ne sera jamais
déjà
C           F/A         G/B       C
J'ai vu des bateaux
des fleurs
des rois
Dm7        C/E                  Am   G        F      F/G
Des matins si beaux
j'en ai cueilli parfois Mmmm
C
En passant
C            F/A     G/B                  C
-----------------------------------------------------------
-----------------------------------------------------------
-----------------------------------------------------------
----------10-10------12-10-12-b(14)br(12)-10-10------------
--10-h-12--------------------------------------------------
-----------------------------------------------------------
Am                  G(6)
-----------------------------------------------------------
-----------------------------------------------------------
----------------------------------12--12-------------------
----------10-10------12--12sl-14---------------------------
--10-h-12--------------------------------------------------
-----------------------------------------------------------
Gsus4 G
-----------------------------------------------------------
---15 b(17)-(15)-------------------------------------------
-----------------------------------------------------------
-----------------------------------------------------------
-----------------------------------------------------------
-----------------------------------------------------------
Reprise au piano

Lien à poster
Partager sur d’autres sites

oui après le piano il y a un solo mémorable !!!!!! c'est justement cela que je cherche car l'accompagnement je l'ai déjà !!! et toutes les partoches que je trouves s'arrêtent à "reprise au piano" je ne comprends pas pourquoi !!!!

Lien à poster
Partager sur d’autres sites
  • 6 years later...

Intro piano

-------------------------------------------------------------------------------------

-----6~8--6-5---6-5----------------------------------------------6~8--6-5---6-5------

-5------------7-----------5-5--7-5------------5-7-9-7--4-5-7-5------------7----------

----------------------5-7-----------7-5--5-7-------------------------------------5-7-

-------------------------------------------------------------------------------------

-------------------------------------------------------------------------------------


----------------------

----------------------

--5-5--7-9--5-10-9-7-- Guitare électrique

----------------------

----------------------

----------------------



-------------------------------------------------------------------------------------

-----6~8--6-5---6-5----------------------------------------------6~8--8~10---8-8-6-5-

-5------------7-----------5-5--7-5------------5-7-9-7--4-5-7-5-----------------------

----------------------5-7-----------7-5--5-7-----------------------------------------

-------------------------------------------------------------------------------------

-------------------------------------------------------------------------------------





---------------------------------8-8-8-----8---7--8-10-8--7--5-5---------------------

-5h6--5-5------5-5----8---8-8-----------------------------------8-8---8~10--8--8--6-6

----------5-7------7-----------------------------------------------------------------

-------------------------------------------------------------------------------------

-------------------------------------------------------------------------------------

-------------------------------------------------------------------------------------





---------------------------------------------------8-8----8--7-8-10----10~12---10-8-8

-5-5-5------5--5--???--5h6h5h6h5h6----------------------------------8----------------

-------5-7---------------------------5-7---9-7-5-------------------------------------

-------------------------------------------------------------------------------------

-------------------------------------------------------------------------------------

-------------------------------------------------------------------------------------





---------8-8--10-10--12---12-13-12-10----------15------------------------------------

-8--8~10-----------------------------------15b----15b--15b--15b--15--13-13----13-15--

----------------------------------------0--------------------------------------------

-------------------------------------------------------------------------------------

-------------------------------------------------------------------------------------

-------------------------------------------------------------------------------------





-------------------------------------------------------------------------------------

----15b--15--13-13----12h13-----------------------13-13-13-13-13-13--15-17-15--------

-12-------------------------16-14-12-12-10-10-10--------------------------------12-14

-------------------------------------------------------------------------------------

-------------------------------------------------------------------------------------

-------------------------------------------------------------------------------------





-------------15-15-15----15-17--------------------13-12-12----------------15---------

-12-13-15-13--------------------15-17-15-17-13-------------13-15-17-17-15------------

-------------------------------------------------------------------------------------

-------------------------------------------------------------------------------------

-------------------------------------------------------------------------------------

-------------------------------------------------------------------------------------





------------------------15-17-19----19-17-15-15--------13-12-----------------15-15-17

--17-17-17----15-17-18--------------------------15-17----------13--13~15-17----------

-------------------------------------------------------------------------------------

-------------------------------------------------------------------------------------

-------------------------------------------------------------------------------------

-------------------------------------------------------------------------------------






--15---15------15--------------------------------------------------------------------

-----------18------17----------------------------------------------------------------

-------------------------------------------------------------------------------------

-------------------------------------------------------------------------------------

-------------------------------------------------------------------------------------

-------------------------------------------------------------------------------------

 

ou

 

En Passant Solos guitares
J.J Goldman

1ER SOLO
E-----------------------------------------------------------
B-----------------------------------------------------------
G-----------------------------------------------------------
D----------10-10------12-10-12-b(14)br(12)-10-10------------
A--10-h-12--------------------------------------------------
E-----------------------------------------------------------

E-----------------------------------------------------------
B-----------------------------------------------------------
G-------------12-12-12-h-14-po-12---------------------------
D--(12)sl-14-------------------------12-sl--14-12-----------
A-----------------------------------------------------------
E-----------------------------------------------------------
2EM SOLO
E-----------------------------------------------------------
B-----------------------------------------------------------
G-----------------------------------------------------------
D----------10-10------12-10-12-b(14)br(12)-10-10------------
A--10-h-12--------------------------------------------------
E-----------------------------------------------------------
E-----------------------------------------------------------
B-----------------------------------------------------------
G----------------------------------12--12-------------------
D----------10-10------12--12sl-14---------------------------
A--10-h-12--------------------------------------------------
E-----------------------------------------------------------
E-----------------------------------------------------------
B---15 b(17)-(15)-------------------------------------------
G-----------------------------------------------------------
D-----------------------------------------------------------
A-----------------------------------------------------------
E-----------------------------------------------------------
Solo final
------------------------------------------------------------
------------------------------------------------------------
----10S12--10-9----10-9-------------------------------------
-10-------------12-------------10-10-10s12-10---------------
-------------------------10-12---------------12-10----------
------------------------------------------------------------
------------------------------------------------------------
------------------------------------------------------------
-------------------------------------10s12--10-9---10-9-----
---------10-12-12s14-12---9-10--12-10------------12---------
---10s12----------------------------------------------------
------------------------------------------------------------
------------------------------------------------------------
------------------------------------------------------------
-------------------------------10-9----------- Entree ------
------------10-10-12-12s14-10-------12-------- Batterie ----
---10-10s12-------------------------------------------------
------------------------------------------------------------
------------------------------------------------------------
------------------------------------------------------------
----10S12---12-12-12s14----12-12-10-9----9h10--9------------
-10---------------------------------------------12-10-10-10-
------------------------------------------------------------
------------------------------------------------------------
------------------------------------------------------------
------------------------------------------------------------
-----------------------------------------10s12--12-12-12s14-
--10-10-10--12-12s14-12---12s14-12-10-10--------------------
------------------------------------------------------------
------------------------------------------------------------
										 ~~~~~~
------------------------------------------------------------
------------------------------------------------------------
--12-12-10-9----9h10--9--------------------12---------------
-----------------------12-10-12-12s14-14-12-----------------
------------------------------------------------------------
------------------------------------------------------------
------------------------------------------------------------
--------13-12b(13)--12b(13)--12-13-13s15-13-12--------------
--12-12----------------------------------------14-14-12-12--
------------------------------------------------------------
------------------------------------------------------------
------------------------------------------------------------
------------------------------------------------------------
------------------------------------------------------------
--12s14-12-12-10-10-9-9---9-9b(10)--------------------------
-----------------------------------12-12p10h12----12-12s14-
------------------------------------------------------------
------------------------------------------------------------

------------------------------------------------------------
------------10s13-13--12-13-15-15s17-13-13-------------13-13
-----------------------------------------------12-12s14-----
-12-10--10--------------------------------------------------
------------------------------------------------------------
------------------------------------------------------------
------------------------------------------------------------
--15-15s17--17-17rb(18)-15---------20---20------20----------
----------------------------19b(21)-----19b(21)-19b(21)-----
------------------------------------------------------------
------------------------------------------------------------
------------------------------------------------------------
------------------------------------------------------------
-----------------------------------/s13-12-12---------------
--19-17-17--19p17-19rb(21)-17-17--------------s14-14--------
-----------------------------------------------------10-10--
------------------------------------------------------------
------------------------------------------------------------
-----------------------------------------------15----15-----
--13-13---13-15-15s17-15--------12-13-13h15--13----13----13-
--------------------------12-14-----------------------------
------------------------------------------------------------
------------------------------------------------------------
------------------------------------------------------------
-15----15----15-15-15b(17)-15-15-13-12---12-12rb(13)---------
-----13----13-----------------------------------------15-15--
-------------------------------------------------------------
-------------------------------------------------------------
-------------------------------------------------------------
-------------------------------------------------------------

			   ~~~~~~~~~~
-------------------------------------------------------------
--13-15-15s17----20----20-----------20--------20-------------
--------------19----19-----19b(21)--19b(21)---19b(21)--------
-------------------------------------------------------------
-------------------------------------------------------------
-------------------------------------------------------------
-------------------------------------------------------------

-------------------------------------------------------------
----------------------------------s13-13-12------------------
--19-17-17---19-17-19b(21)-17-17------------14-14------------
--------------------------------------------------10-10------
-------------------------------------------------------------
-------------------------------------------------------------
-----------------------------------------------15----15-----
--13-13---13-15-15s17-15--------12-13-13h15--13----13----13-
--------------------------12-14-----------------------------
------------------------------------------------------------
------------------------------------------------------------
------------------------------------------------------------

-15----15----15-15-15b(17)-15-15-13-12---12-12rb(13)---------
-----13----13-----------------------------------------15-15--
-------------------------------------------------------------
-------------------------------------------------------------
-------------------------------------------------------------
-------------------------------------------------------------
			  ~~~~~~~~~~
-------------------------------------------------------------
----13-15-15s17---20----20-----------------------------------
----------------19----19-------------------------------------
-------------------------------------------------------------
-------------------------------------------------------------
-------------------------------------------------------------

 

 

source ABC des tabs

Modifié par toffy
Lien à poster
Partager sur d’autres sites

Veuillez vous connecter pour commenter

Vous pourrez laisser un commentaire après vous êtes connecté.



Connectez-vous maintenant
×
×
  • Créer...