Aller au contenu

[Jean-Sébastien Bach] Bourrée en Mi mineur


Messages recommandés

Voici une tablature de ce joli morceau (repris par Jethro Tull, entre autres) :guitare:

 

 

 

 

||--0--2--|--3----2--0-------0--2--|-------------0----------|
||--------|-------------4----------|--0----2--4-------3--1--|
||--------|------------------------|------------------------|
||--------|------------------------|------------------------|
||--------|-------0-----2----0-----|------------------------|
||--3--2--|--0---------------------|--3----2-----0----2-----|



|------------------------|--------------------0--2--|--3----2--0-------0--2--|
|--0---------------------|--0-----------------------|-------------4----------|
|-------2--0-------0--2--|-----2--0-----------------|------------------------|
|-------------4----------|-----------4--2-----------|------------------------|
|-------0-----2----0-----|--------2-----------------|-------0-----2----0-----|
|--3---------------------|--3-----------0--2--3--2--|--0---------------------|



|-------------0----------|------------------------|----------------|
|--0----2--4-------3--1--|--0---------------------|----------------|
|------------------------|-------2--0----------0--|--0------------*|
|------------------------|-------------4----------|--0------------*|
|------------------------|-------3-----5~~~~5-----|--2-------------|
|--3----2-----0----2-----|--3---------------------|--3-------------|



|---------||------------------3-----|--0---------------------|------------------------|
|---0-----||--3-------1--0-------3--|----------3-------0-----|----------0--1----0-----|
|*-----0--||-------2----------------|-------4-----5-------2--|--1----2-------------2--|
|*--5-----||--4----0----------------|------------------0-----|--2----------2----------|
|---------||------------------2-----|--3----------0----------|-------0----------------|
|---------||-------------3----------|-------4----------------|------------------0-----|



|-------------------------|-------3-----0----------|-------5-------------0--|
|-------------------3-----|--0-------3----------3--|----------5--7----2-----|
|--2-------------------2--|------------------4-----|--5---------------------|
|-------------------0-----|------------------------|-------------0----------|
|--0--2--0----------------|-------2-----3----------|--0----3----------1-----|
|-----------3--2----------|--3---------------4-----|------------------------|



|------------------------|-------------------7-----|----------0--5----0--3--|
|--3----2--0----------0--|--0-------------------7--|--9----7----------------|
|-------------3~~~~------|-------------------------|------------------------|
|-------2-----4----------|-------------------------|-------0----------------|
|--2---------------------|--2--1--2--4--6----------|--7----------4----0-----|
|------------------2-----|-------------------7-----|------------------------|



|--2----0-----3-------1--|--0----5--0--2-------0--|-------------------0-----|
|----------3-------------|------------------2-----|--4----0--------------0--|
|------------------7-----|------------------------|-------------------------|
|--0---------------------|------------------------|-------------------------|
|-------0-----2----------|--3----2-----0----------|--2-------3--2--0--------|
|------------------3-----|------------------2-----|-------------------4-----|



|--------------------------|-------------------------|------------------------|
|--1-----3-----0-----1-----|--------0----------------|------------------------|
|-----------2-----------0--|--2-----------0----------|-------------0----------|
|-----2--4--------1--2-----|-----------4-------4--2--|--1----2--4-------4--2--|
|--0-----------------------|-----4--6----------0-----|--2----0-----2----------|
|--------------3-----------|--2-----------0----------|------------------------|



|----------------||
|----------------||
|---------------*||
|--2------------*||
|----------------||
|--0-------------||

 

 

L'espacement donne une idée du rythme (il n'y a que des croches et des noires)

 

la partition est ici : http://www.delcamp.net/pdf/2_baroque/bwv9965_bach_bourree.pdf

 

 

et voici ce que ça donne en vidéo :

 

Lien à poster
Partager sur d’autres sites
  • 3 months later...
  • 8 years later...

Bonjour (je déterre ce sujet désolé),

 

je vous propose une autre version de la bourrée que je trouve sympa à travailler pour un débutant (mon cas).

 

Elle permet de rester en position et de travailler le coté mélodique, bref parfait pour moi.

(C'est une partition que j'ai recopiée dans Guitar Pro, je ne suis pas un spécialiste, on peut certainement mieux faire).

Bourrée Bach.gpx

Bourrée Bach.pdf

Lien à poster
Partager sur d’autres sites

Veuillez vous connecter pour commenter

Vous pourrez laisser un commentaire après vous êtes connecté.



Connectez-vous maintenant
×
×
  • Créer...