Aller au contenu
  • 0

[Lawson] When she was mine


Question

2 réponses à cette question

Messages recommandés

  • 0

E-4s55555555--4s55555555----------------------------------|
B-7-77777777--7s77777777---REPEAT THROUGH OUT WHOLE VERSE-|
G-7-77777777--7s77777777----------------------------------|
D-7-77777777--7s77777777----------------------------------|
A-4s55555555--4s55555555----------------------------------|
E-4s55555555--4s55555555----------------------------------|
Listen to the song to get the down up strum to this
D
Everywhere I go
D
Everything I do
D
Reminds me of you
D
Just a picture on the wall
D
I'm surrounded by it all
D
Gotta walk before I fall, yeah
D
Fall out, out on the street
A
Streetlight, light over for me
Bm						  G
So far from where I used to be
D
When she was mine
		   A
Everything was easy
		   Bm
Everything was simple
		   G
Never felt so good
		   D
When she was mine
		   A
I wanted to remember
		   Bm
Never missed a second
		   G
Now I wish I could forget
				  D		  A
Forget when she was mine, mine, yeah
		  Bm		   G
When she was mine, mine, yeah
D
What I miss the most
D
Is talking up all night
D
We laughed until we cried
D
Now I'm breaking at the seams
D
Droping to my knees
D
Nothing left of me, no
D
Like stone turned into dust
A
My heart wasn't enough
Bm						  G
So far from where I used to be
D
When she was mine
		    A
Everything was easy
			 Bm
Everything was simple
		    G
Never felt so good
		   D
When she was mine
		   A
I wanted to remember
		    Bm
Never missed a second
				 G
Now I wish I could forget
				  D		  A
Forget when she was mine, mine, yeah
		   Bm		  G
When she was mine, mine, yeah
		    D
When she was mine
E|-------------------------------------------------------------|
B|-11/15---17----14--------------------------------------------|
G|------------------------14--14p11-----14p11------------------|
D|-----------------------------------------------14p12---------|
A|-------------------------------------------------------------|
E|-------------------------------------------------------------|
Bm			    A
Wonder if she's out there
		    G
Wonder where she goes, she goes
Bm			   A
Wonder what she's doing
	   G			  D
Will I ever know, yeah
A
Everything was easy
			 Bm
Everything was simple
		    G
Never felt so good
		  D
When she was mine
		    A
I wanted to remember
			 Bm
Never missed a second
				 G
Now I wish I could forget
				  D		  A
Forget when she was mine, mine, yeah
		   Bm		  G
When she was mine, mine, yeah
G
Down on my knees
   Bm			 A
Gotta see her, gotta see her, gotta see her
G
Tried to forget
   Bm			   A
But I need her, but I need her, but I need her
G
Down on my knees
   Bm			 A
Gotta see her, gotta see her, gotta see her
G
Tried to forget
   Bm			   A
But I need her, but I need her.
		    G  Bm  A (Single strum)
When she was mine

 

source YourChords.com

Lien à poster
Partager sur d’autres sites

Veuillez vous connecter pour commenter

Vous pourrez laisser un commentaire après vous êtes connecté.



Connectez-vous maintenant
×
×
  • Créer...