Aller au contenu

[Led Zeppelin] Stairway to heaven


Messages recommandés

la prmiere guitare:

 

Stairway To Heaven (2)
Led Zepellin
Tom Tom© 2001 Art Studio
Accordage : E A D G B E 	Signature Rythmique: 9/8

|           |           |            |           |           |            |           |           |            
|----------------5---7-----------7---|----8-----------8---2-----------2---|----0-------------------0-----------|
|------------5-----------5-----------|--------5---------------3-----------|--------1-------1-----------1-------|
|--------5-------------------5-------|------------5---------------2-------|------------2-------------------2---|
|----7---------------6---------------|----5---------------4---------------|----3-------------------------------|
|------------------------------------|------------------------------------|------------------------------------|
|------------------------------------|------------------------------------|------------------------------------|

|           |           |            |           |           |            |           |           |            
|------------------------------------|--------------------7-----------7---|----8-----------8---2-----------2---|
|----0---1---1-----------------------|----------------5-------5-----------|--------5---------------3-----------|
|----0---2---2-----------------------|------------5---------------5-------|------------5---------------2-------|
|------------------------------------|--------7-----------6---------------|----5---------------4---------------|
|----2---0---0-----------0/--8---7---|----0-------------------------------|------------------------------------|
|------------------------------------|------------------------------------|------------------------------------|

|           |           |            |           |           |            |           |           |            
|----0-------------------0-----------|------------------------------------|----------------0---2-----------2---|
|--------1-------1-----------1-------|----0---1---1-----------------------|------------------------3-----------|
|------------2-------------------2---|----0---2---2-----------------------|------------0---------------2-------|
|----3-------------------------------|------------------------------------|--------2-----------0---------------|
|------------------------------------|----2---0---0---------------0---2---|----3-------------------------------|
|------------------------------------|------------------------------------|------------------------------------|

|           |           |            |           |           |            |           |           |            
|----0-----------0-------------------|--------------------3-----------3---|----3h2-2---2-----------------------|
|--------1-----------0h1-------------|----1-----------1-------0-----------|----3---3---3-----------------------|
|------------2-----------2-----------|--------0-------------------0-------|----2-------2-----------------------|
|----3-------------------------------|------------2-----------------------|----0-------0-----------------------|
|--------------------0-------0---2---|----3-------------------------------|----------------------------0---2---|
|------------------------------------|--------------------3---------------|------------------------------------|

|           |           |            |           |           |            |           |           |            
|----------------0---2-----------2---|----0-----------0-------------------|--------------------------------2---|
|------------------------3-----------|--------1-----------0h1-------------|----------------1-----------3-------|
|------------0---------------2-------|------------2-----------2-----------|------------0-----------2-----------|
|--------2-----------0---------------|----3-------------------------------|--------2-----------0---------------|
|----3-------------------------------|--------------------0-------0---2---|----3-------------------------------|
|------------------------------------|------------------------------------|------------------------------------|

|           |           |            |           |           |            |           |           |            
|----0---0---0-----------------------|----------------5---7-----------7---|----8-----------8---2-----------2---|
|----1---1---1-----------------------|------------5-----------5-----------|--------5---------------3-----------|
|----2---2---2-----------------------|--------5-------------------5-------|------------5---------------2-------|
|----3---3---3-----------------------|----7---------------6---------------|----5---------------4---------------|
|------------------------------------|------------------------------------|------------------------------------|
|------------------------------------|------------------------------------|------------------------------------|

|           |           |            |           |           |            |           |           |            
|----0-------------------0-----------|------------------------------------|--------------------7-----------7---|
|--------1-------1-----------1-------|----0---1---1-----------------------|----------------5-------5-----------|
|------------2-------------------2---|----0---2---2-----------------------|------------5---------------5-------|
|----3-------------------------------|------------------------------------|--------7-----------6---------------|
|------------------------------------|----2---0---0-----------------------|----0-------------------------------|
|------------------------------------|------------------------------------|------------------------------------|

|           |           |            |           |           |            |           |           |            
|----8-----------8---2-----------2---|----0-------------------0-----------|------------------------------------|
|--------5---------------3-----------|--------1-------1-----------1-------|----0---1---1-----------------------|
|------------5---------------2-------|------------2-------------------2---|----0---2---2-----------------------|
|----5---------------4---------------|----3-------------------------------|------------------------------------|
|------------------------------------|------------------------------------|----2---0---0---------------0---2---|
|------------------------------------|------------------------------------|------------------------------------|

|           |           |            |           |           |            |           |           |            
|----------------0---2-----------2---|----0-------------------------------|--------------------3-----------3---|
|------------------------3-----------|--------1-------1---0h1-------------|----1-----------1-------0-----------|
|------------0---------------2-------|------------2-----------2-----------|--------0-------------------0-------|
|--------2-----------0---------------|----3-------------------------------|------------2-----------------------|
|----3-------------------------------|--------------------0-------0---2---|----3-------------------------------|
|------------------------------------|------------------------------------|--------------------3---------------|

|           |           |            |           |           |            |           |           |            
|----3h2-2---2-----------------------|----------------0---2-----------2---|----0-----------0-------------------|
|----3---3---3-----------------------|------------------------3-----------|--------1-----------0h1-------------|
|----2-------2-----------------------|------------0---------------2-------|------------2-----------2-----------|
|----0-------0-----------------------|--------2-----------0---------------|----3-------------------------------|
|----------------------------0---2---|----3-------------------------------|--------------------0-------0---2---|
|------------------------------------|------------------------------------|------------------------------------|

|           |           |            |           |           |            |           |           |            
|--------------------------------2---|----0---0---0-----------------------|----------------5---7-----------7---|
|----------------1-----------3-------|----1---1---1-----------------------|------------5-----------5-----------|
|------------0-----------2-----------|----2---2---2-----------------------|--------5-------------------5-------|
|--------2-----------0---------------|----3---3---3-----------------------|----7---------------6---------------|
|----3-------------------------------|------------------------------------|------------------------------------|
|------------------------------------|------------------------------------|------------------------------------|

|           |           |            |           |           |            |           |           |            
|----8-----------8---2-----------2---|----0-------------------0-----------|------------------------------------|
|--------5---------------3-----------|--------1-------1-----------1-------|----0---1---1-----------------------|
|------------5---------------2-------|------------2-------------------2---|----0---2---2-----------------------|
|----5---------------4---------------|----3-------------------------------|------------------------------------|
|------------------------------------|------------------------------------|----2---0---0-----------0/--8---7---|
|------------------------------------|------------------------------------|------------------------------------|

|           |           |            |           |           |            |           |           |            
|----------------5---7-------5-------|----------8---------------2---------|----------0---------------0---------|
|----------------------5---5---5-----|--------5---5-----------3---3-------|--------1-----1---------1---1-------|
|------------5-----------5-------5---|------5-------5-------2-------2---2-|------2---------2-----2-------2-----|
|--------7-----------6-------------6-|----5-----------5---4-----------4---|----3---------------3-----------3---|
|----0-0-----------------------------|------------------------------------|------------------------------------|
|------------------------------------|------------------------------------|------------------------------------|

|           |           |            |           |           |            |           |           |            
|------------------------------------|------------------------------------|------------------------------------|
|----0---1---1---------------3-------|------------------------------------|------------------------------------|
|----0---2---2---------------0-------|------------------------------------|------------------------------------|
|----------------------------0-------|------------------------------------|------------------------------------|
|----2---0---0---------------2-------|------------------------------------|------------------------------------|
|------------------------------------|------------------------------------|------------------------------------|

 

 

 

 

la deuxieme

 

 |           |           |            |           |           |            |           |           |            
|------------------------------------|----3---3-3-3---3-------0-------0---|--------2-----------------2---------|
|----------------------------3-------|----1---1-1-1---1-------1-------3---|--------3-----------3---3---3---0-0-|
|----------------------------0-------|----0---0-0-0---0-------0-------0---|--------2-----------------------0-0-|
|----------------------------0-------|----2---2-2-2---2-------2-----------|--------0-------0-------------------|
|----------------------------2-------|----0---0-0-0---0-------0-----------|------------------------------------|
|------------------------------------|------------------------------------|------------------------------------|

|           |           |            |           |           |            |           |           |            
|----3---3-3-3---3---3---0-------7---|--------5-------3-------5-----------|----3---3-3-3---3-------0-------0---|
|----1---1-1-1---1---1---1-------8---|--------7-------5-------7-----------|----1---1-1-1---1-------1-------3---|
|----0---0-0-0---0---2---2-------9---|--------7-------5-------7-----------|----0---0-0-0---0-------0-------0---|
|----2---2-2-2---2---2---2-----------|--------------------------------0---|----2---2-2-2---2-------2-----------|
|----0---0-0-0---0---0---------------|--------------------------------0---|----0---0-0-0---0-------0-----------|
|------------------------------------|------------------------------------|------------------------------------|

|           |           |            |           |           |            |           |           |            
|--------2-----------------2---------|----3---3-3-3---3---3---0-------7---|--------5-------3-------5-----------|
|--------3-----------3---3---3---0-0-|----1---1-1-1---1---1---1-------8---|--------7-------5-------7-----------|
|--------2-----------------------0-0-|----0---0-0-0---0---2---2-------9---|--------7-------5-------7-----------|
|--------0-------0-------------------|----2---2-2-2---2---2---2-----------|--------------------------------0---|
|------------------------------------|----0---0-0-0---0---0---------------|--------------------------------0---|
|------------------------------------|------------------------------------|------------------------------------|

|           |           |            |           |           |            |           |           |            
|------------------------------------|------------------------------------|--------------------------------0---|
|----------------1---------------3---|----1-------------------1-----------|----------------1---------------1---|
|------------0---------------0-------|--------2-----------2---------------|------------0---------------0---2---|
|--------2---------------0-----------|----------------2-------------------|--------2---------------0-------3---|
|----3---------------2---------------|------------0---------------0---2---|----3---------------2-----------3---|
|------------------------------------|------------------------------------|------------------------------------|

|           |           |            |           |           |            |           |           |            
|--------0---------------------------|------------------------------------|------------------------------------|
|--------1---------------------------|----------------1---------------3---|----1-------------------1-----------|
|--------2---------------------------|------------0---------------0-------|--------2-----------2---------------|
|--------2---------------------------|--------2---------------0-----------|----------------2-------------------|
|--------0-------------------0---2---|----3---------------2---------------|------------0---------------0---2---|
|------------------------------------|------------------------------------|------------------------------------|

|           |           |            |           |           |            |           |           |            
|--------------------------------0---|--------0---------------------------|------------------------------------|
|----------------1---------------1---|--------1---------------------------|--------------------------------0---|
|------------0---------------0---2---|--------2---------------------------|------------0---------------0-------|
|--------2---------------0-------3---|--------2---------------------------|--------2---------------0-------0---|
|----3---------------2-----------3---|--------0-------------------0---2---|----3-----------3---2---------------|
|------------------------------------|------------------------------------|------------------------------------|

|           |           |            |           |           |            |           |           |            
|----3---3-3-3---3-------0-------0---|--------2-----------------2---------|----3---3-3-3---3---3---0-------7---|
|----1---1-1-1---1-------1-------3---|--------3-----------3---3---3---0-0-|----1---1-1-1---1---1---1-------8---|
|----0---0-0-0---0-------0-------0---|--------2-----------------------0-0-|----0---0-0-0---0---2---2-------9---|
|----2---2-2-2---2-------2-----------|--------0-------0-------------------|----2---2-2-2---2---2---2-----------|
|----0---0-0-0---0-------0-----------|------------------------------------|----0---0-0-0---0---0---------------|
|------------------------------------|------------------------------------|------------------------------------|

|           |           |            |           |           |            |           |           |            
|--------5-------3-------5-----------|----3---3-3-3---3-------0-------0---|--------2-----------2---2-2-2-------|
|--------7-------5-------7-----------|----1---1-1-1---1-------1-------3---|--------3-----------3---3-3-3-------|
|--------7-------5-------7-----------|----0---0-0-0---0-------0-------0---|--------2-----------2---2-2-2-------|
|--------------------------------0---|----2---2-2-2---2-------2-----------|--------0-----------0-----------0---|
|--------------------------------0---|----0---0-0-0---0-------0-----------|----------------0-------------------|
|------------------------------------|------------------------------------|------------------------------------|

|           |           |            |           |           |            |           |           |            
|----3---3-3-3-----------0-------7---|--------5-------3-------5-----------|------------------------------------|
|----1---1-1-1-----------1-------8---|--------7-------5-------7-----------|----------------1---------------3---|
|----0---0-0-0-----------2-------9---|--------7-------5-------7-----------|------------0---------------0-------|
|----2---2-2-2-----------2-----------|------------------------------------|--------2---------------0-----------|
|----0---0-0-0-----------------------|--------------------------------0---|----3---------------2---------------|
|------------------------------------|------------------------------------|------------------------------------|

|           |           |            |           |           |            |           |           |            
|------------------------------------|--------------------------------0---|--------0---------------------------|
|----1-------------------1-----------|----------------1---------------1---|--------1---------------------------|
|--------2-----------2---------------|------------0---------------0---2---|--------2---------------------------|
|----------------2-------------------|--------2---------------0-------3---|--------2---------------------------|
|------------0---------------0---2---|----3---------------2-----------3---|--------0-------------------0---2---|
|------------------------------------|------------------------------------|------------------------------------|

|           |           |            |           |           |            |           |           |            
|------------------------------------|------------------------------------|--------------------------------0---|
|----------------1---------------3---|----0h1-----------------1-----------|----------------1---------------1---|
|------------0---------------0-------|--------2-----------2---------------|------------0---------------0---2---|
|--------2---------------0-----------|----------------2-------------------|--------2---------------0-------3---|
|----3---------------2---------------|------------0---------------0---2---|----3---------------2-----------3---|
|------------------------------------|------------------------------------|------------------------------------|

|           |           |            |           |           |            |           |           |            
|--------0---------------------------|------------------------------------|----3---3-3-3---3-------0-------0---|
|--------1---------------------------|--------------------------------0---|----1---1-1-1---1-------1-------3---|
|--------2---------------------------|------------0---------------0-------|----0---0-0-0---0-------0-------0---|
|--------2---------------------------|--------2---------------0-------0---|----2---2-2-2---2-------2-----------|
|--------0-------------------0---2---|----3-----------3---2---------------|----0---0-0-0---0-------0-----------|
|------------------------------------|------------------------------------|------------------------------------|

|           |           |            |           |           |            |           |           |            
|--------3-----2-----2-2-2-2-2-2-----|----3---3-3-3---3-------0-------7---|--------5-------3-------5-----------|
|--------3-----3-----3-3-3-3-3-3-0-0-|----1---1-1-1---1-------1-------8---|--------7-------5-------7-----------|
|--------2-----2-----2-2-2-2-2-2-0-0-|----0---0-0-0---0-------2-------9---|--------7-------5-------7-----------|
|------------------------------------|----2---2-2-2---2-------2-----------|------------------------------------|
|------------------------------------|----0---0-0-0---0-------------------|--------------------------------0---|
|------------------------------------|------------------------------------|------------------------------------|

|           |           |            |           |           |            |           |           |            
|----3---3-3-3---3-------0-------0---|--------2-----------------2---------|----3---3-3-3---3---3---0-------7---|
|----1---1-1-1---1-------1-------3---|--------3-----------3---3---3---0-0-|----1---1-1-1---1---1---1-------8---|
|----0---0-0-0---0-------0-------0---|--------2-----------------------0-0-|----0---0-0-0---0---2---2-------9---|
|----2---2-2-2---2-------2-----------|--------0-------0-------------------|----2---2-2-2---2---2---2-----------|
|----0---0-0-0---0-------0-----------|------------------------------------|----0---0-0-0---0---0---------------|
|------------------------------------|------------------------------------|------------------------------------|

|           |           |            |           |           |            |           |           |            
|--------5-------3-------5-----------|------------------------------------|------------------------------------|
|--------7-------5-------7-----------|----------------1---------------3---|----1-------------------1-----------|
|--------7-------5-------7-----------|------------0---------------0-------|--------2-----------2---------------|
|--------------------------------0---|------------------------0-----------|----------------2-------------------|
|--------------------------------0---|--------------------2---------------|------------0---------------0---2---|
|------------------------------------|------------------------------------|------------------------------------|

|           |           |            |           |           |            |           |           |            
|--------------------------------0---|--------0---------------------------|------------------------------------|
|----------------1---------------1---|--------1---------------------------|----------------1---------------3---|
|------------0---------------0---2---|--------2---------------------------|------------0---------------0-------|
|--------2---------------0-------3---|--------2---------------------------|--------2---------------0-----------|
|----3---------------2-----------3---|--------0-------------------0---2---|----3---------------2---------------|
|------------------------------------|------------------------------------|------------------------------------|

|           |           |            |           |           |            |           |           |            
|------------------------------------|--------------------------------0---|--------0---------------------------|
|----1-------------------1-----------|----------------1---------------1---|--------1---------------------------|
|--------2-----------2---------------|------------0---------------0---2---|--------2---------------------------|
|----------------2-------------------|--------2---------------0-------3---|--------2---------------------------|
|------------0---------------0---2---|----3---------------2-----------3---|--------0-------------------0---2---|
|------------------------------------|------------------------------------|------------------------------------|

|           |           |            |           |           |            |           |           |            
|------------3---------------3-------|----2---------------------------0-2-|----3-----------0-2-3-----------0-2-|
|--------5---------------3-----------|----3---------------------------3-3-|----3-----------3-3-3-----------3-3-|
|----5-----------5---4-----------0---|----2---------------------------2-2-|----2-----------2-2-2-----------2-2-|
|------------------------------------|----0---------------------------0-0-|----0-----------0-0-0-----------0-0-|
|------------------------------------|------------------------------------|------------------------------------|
|------------------------------------|------------------------------------|------------------------------------|

|           |           |            |           |           |            |           |           |            
|--------3-------3-------2-----------|------------2-----2-2---0-----------|--------2-----2-2---0-------0---0-0-|
|--------3-------3-------3-------3---|--------3---3-----3-3---3-------1---|----1---3-----3-3---3-------3---3-3-|
|--------2-------2-------2-------0---|--------0---0-----0-0---0-------0---|----0---0-----0-0---------------2-2-|
|--------0-------0-------0-------2---|--------------------------------2---|--------------------0-------0---0-0-|
|--------------------------------3---|--------------------------------3---|------------------------------------|
|------------------------------------|------------------------------------|------------------------------------|

|           |           |            |           |           |            |           |           |            
|----3-----------0-2-3-----------0-2-|--------3-------3-------2-----------|------------2-----2-2---0-----------|
|----3-----------3-3-3-----------3-3-|--------3-------3-------3-------3---|--------3---3-----3-3---3-------1---|
|----2-----------2-2-2-----------2-2-|--------2-------2-------2-------0---|--------0---0-----0-0---0-------0---|
|----0-----------0-0-0-----------0-0-|--------0-------0-------0-------2---|--------------------------------2---|
|------------------------------------|--------------------------------3---|--------------------------------3---|
|------------------------------------|------------------------------------|------------------------------------|

|           |           |            |           |           |            |           |           |            
|------------------------------------|----0-------0-------0-------0-------|----0-------0-----0-----0---0-------|
|----3-------------------------------|----1-------1-------1-------1-------|----1-------1-----1-----1---1-------|
|----4-------------------------------|----2-------2-------0-------0-------|----2-------2-----2-----2---2-------|
|------------------------------------|----2-------2-------2-------2-------|----3-------3-----3-----3---3-------|
|------------------------------------|------------------------------------|------------------------------------|
|------------------------------------|------------------------------------|------------------------------------|

|           |           |            |           |           |            |           |           |            
|----0---0---0-------0-------0-------|----0-------0-----0-----0---0-------|----0-------0-------0-------0-------|
|----1---1---1-------1-------1-------|----1-------1-----1-----1---1-------|----1-------1-------1-------1-------|
|----2---2---2-------0-------0-------|----2-------2-----2-----2---2-------|----2-------2-------0-------0-------|
|----2---2---2-------2-------2-------|----3-------3-----3-----3---3-------|----2-------2-------2-------2-------|
|------------------------------------|------------------------------------|------------------------------------|
|------------------------------------|------------------------------------|------------------------------------|

|           |           |            |           |           |            |           |           |            
|----0-------0-----0-----0---0-------|----0-------0-------0-------0-------|----0-------0-----0-----0---0-------|
|----1-------1-----1-----1---1-------|----1-------1-------1-------1-------|----1-------1-----1-----1---1-------|
|----2-------2-----2-----2---2-------|----2-------2-------0-------0-------|----2-------2-----2-----2---2-------|
|----3-------3-----3-----3---3-------|----2-------2-------2-------2-------|----3-------3-----3-----3---3-------|
|------------------------------------|------------------------------------|------------------------------------|
|------------------------------------|------------------------------------|------------------------------------|

|           |           |            |           |           |            |           |           |            
|----0-------0-----0-0---0---0-------|----0-------0-----0-0---0---0-------|----0-------0-----0-0---0---0-------|
|----1-------1-----1-1---1---1-------|----1-------1-----1-1---1---1-------|----1-------1-----1-1---1---1-------|
|----2-------2-----0-0---0---0-------|----2-------2-----2-2---2---2-------|----2-------2-----0-0---0---0-------|
|----2-------2-----2-2---2---2-------|----3-------3-----3-3---3---3-------|----2-------2-----2-2---2---2-------|
|------------------------------------|------------------------------------|------------------------------------|
|------------------------------------|------------------------------------|------------------------------------|

|           |           |            |           |           |            |           |           |            
|----0-------0-----0-0---0---0-------|----0-------0-----0-0---0---0-------|----0-------0-----0-0---0---0-------|
|----1-------1-----1-1---1---1-------|----1-------1-----1-1---1---1-------|----1-------1-----1-1---1---1-------|
|----2-------2-----2-2---2---2-------|----2-------2-----0-0---0---0-------|----2-------2-----2-2---2---2-------|
|----3-------3-----3-3---3---3-------|----2-------2-----2-2---2---2-------|----3-------3-----3-3---3---3-------|
|------------------------------------|------------------------------------|------------------------------------|
|------------------------------------|------------------------------------|------------------------------------|

|           |           |            |           |           |            |           |           |            
|----0-------0-------0-------0-------|----0-------0-----0-0---0---0-------|----0-------0-------0-------0-------|
|----1-------1-------1-------1-------|----1-------1-----1-1---1---1-------|----1-------1-------1-------1-------|
|----2-------2-------0-------0-------|----2-------2-----2-2---2---2-------|----2-------2-------0-------0-------|
|----2-------2-------2-------2-------|----3-------3-----3-3---3---3-------|----2-------2-------2-------2-------|
|------------------------------------|------------------------------------|------------------------------------|
|------------------------------------|------------------------------------|------------------------------------|

|           |           |            |           |           |            |           |           |            
|----0-------0-----0-0-------0-------|----0-------0-------0-------0-------|----0-------0-----0-0-------0-------|
|----1-------1-----1-1-------1-------|----1-------1-------1-------1-------|----1-------1-----1-1-------1-------|
|----2-------2-----2-2-------2-------|----2-------2-------0-------0-------|----2-------2-----2-2-------2-------|
|----3-------3-----3-3-------3-------|----2-------2-------2-------2-------|----3-------3-----3-3-------3-------|
|------------------------------------|------------------------------------|------------------------------------|
|------------------------------------|------------------------------------|------------------------------------|

|           |           |            |           |           |            |           |           |            
|----0---0---0-0-0-0-0---0---0---3---|----1---1-1-1-1-1-1-1-1-1-1-1---3---|----0---0---0-0-0-0-0---0---0---3---|
|----1---1---1-1-1-1-1---1---1---3---|----1---1-1-1-1-1-1-1-1-1-1-1---3---|----1---1---1-1-1-1-1---1---1---3---|
|----2---2---2-2-2-2-2---2---2---0---|----2---2-2-2-2-2-2-2-2-2-2-2---0---|----2---2---2-2-2-2-2---2---2---0---|
|----2---2---2-2-2-2-2---2---2---0---|----3---3-3-3-3-3-3-3-3-3-3-3---0---|----2---2---2-2-2-2-2---2---2---0---|
|----0---0---0-0-0-0-0---0---0---2---|----3---3-3-3-3-3-3-3-3-3-3-3---2---|----0---0---0-0-0-0-0---0---0---2---|
|------------------------------------|------------------------------------|------------------------------------|

|           |           |            |           |           |            |           |           |            
|----1---1-1-1-1-1-1-1-1-1-1-1---3---|----0---0---0-0-0-0-0---0---0---3---|----1---1-1-1-1-1-1-1-1-1-1-1---3---|
|----1---1-1-1-1-1-1-1-1-1-1-1---3---|----1---1---1-1-1-1-1---1---1---3---|----1---1-1-1-1-1-1-1-1-1-1-1---3---|
|----2---2-2-2-2-2-2-2-2-2-2-2---0---|----2---2---2-2-2-2-2---2---2---0---|----2---2-2-2-2-2-2-2-2-2-2-2---0---|
|----3---3-3-3-3-3-3-3-3-3-3-3---0---|----2---2---2-2-2-2-2---2---2---0---|----3---3-3-3-3-3-3-3-3-3-3-3---0---|
|----3---3-3-3-3-3-3-3-3-3-3-3---2---|----0---0---0-0-0-0-0---0---0---2---|----3---3-3-3-3-3-3-3-3-3-3-3---2---|
|------------------------------------|------------------------------------|------------------------------------|

|           |           |            |           |           |            |           |           |            
|----0---0---0-0-0-0-0---0---0---3---|----1---1-1-1-1-1-1-1-1-1-1-1---3---|----0---0---0-0-0-0-0---0---0---3---|
|----1---1---1-1-1-1-1---1---1---3---|----1---1-1-1-1-1-1-1-1-1-1-1---3---|----1---1---1-1-1-1-1---1---1---3---|
|----2---2---2-2-2-2-2---2---2---0---|----2---2-2-2-2-2-2-2-2-2-2-2---0---|----2---2---2-2-2-2-2---2---2---0---|
|----2---2---2-2-2-2-2---2---2---0---|----3---3-3-3-3-3-3-3-3-3-3-3---0---|----2---2---2-2-2-2-2---2---2---0---|
|----0---0---0-0-0-0-0---0---0---2---|----3---3-3-3-3-3-3-3-3-3-3-3---2---|----0---0---0-0-0-0-0---0---0---2---|
|------------------------------------|------------------------------------|------------------------------------|

|           |           |            |           |           |            |           |           |            
|----1---1-1-1-1-1-1-1-1-1-1-1---3---|----0---0---0-0-0-0-0---0---0---3---|----1---1-1-1-1-1-1-1-1-1-1-1---3---|
|----1---1-1-1-1-1-1-1-1-1-1-1---3---|----1---1---1-1-1-1-1---1---1---3---|----1---1-1-1-1-1-1-1-1-1-1-1---3---|
|----2---2-2-2-2-2-2-2-2-2-2-2---0---|----2---2---2-2-2-2-2---2---2---0---|----2---2-2-2-2-2-2-2-2-2-2-2---0---|
|----3---3-3-3-3-3-3-3-3-3-3-3---0---|----2---2---2-2-2-2-2---2---2---0---|----3---3-3-3-3-3-3-3-3-3-3-3---0---|
|----3---3-3-3-3-3-3-3-3-3-3-3---2---|----0---0---0-0-0-0-0---0---0---2---|----3---3-3-3-3-3-3-3-3-3-3-3---2---|
|------------------------------------|------------------------------------|------------------------------------|

|           |           |            |           |           |            |           |           |            
|----0---0---0-0-0-0-0---0---0---3---|----1---1-1-1-1-1-1-1-1-1-1-1---3---|----0---0-----------0---0-------0---|
|----1---1---1-1-1-1-1---1---1---3---|----1---1-1-1-1-1-1-1-1-1-1-1---3---|----1---1-----------1---1-------1---|
|----2---2---2-2-2-2-2---2---2---0---|----2---2-2-2-2-2-2-2-2-2-2-2---0---|----2---2-----------2---2-------2---|
|----2---2---2-2-2-2-2---2---2---0---|----3---3-3-3-3-3-3-3-3-3-3-3---0---|----2---2-----------2---2-------3---|
|----0---0---0-0-0-0-0---0---0---2---|----3---3-3-3-3-3-3-3-3-3-3-3---2---|----0---0-----------0---0-----------|
|------------------------------------|------------------------------------|------------------------------------|

|           |           |            |           |           |            |           |           |            
|------------0-----0-1-------1-------|----0---0-----------0---0-------0---|------------0-----0-1-------1-------|
|------------1-----1-1-------1-------|----1---1-----------1---1-------1---|------------1-----1-1-------1-------|
|------------2-----2-2-------2-------|----2---2-----------2---2-------2---|------------2-----2-2-------2-------|
|------------3-----3-3-------3-------|----2---2-----------2---2-------3---|------------3-----3-3-------3-------|
|------------3-----3-3-------3-------|----0---0-----------0---0-----------|------------3-----3-3-------3-------|
|--------------------------------5-5-|------------------------------------|------------------------------------|

|           |           |            |           |           |            |           |           |            
|----0-------0-----0-0-------0-------|----1-------1---------------3-------|----0-------0-------0-------0-------|
|----1-------1-----1-1-------1-------|----1-------1---------------3-------|----1-------1-------1-------1-------|
|----2-------2-----2-2-------2-------|----2-------2---------------0-------|----2-------2-------0-------0-------|
|----2-------2-----2-2-------2-------|----3-------3---------------0-------|----2-------2-------2-------2-------|
|----0-------0-----0-0-------0-------|----3-------3---------------2-------|----0-------0-------0-------0-------|
|------------------------------------|------------------------------------|------------------------------------|

|           |           |            |           |           |            |           |           |            
|----0-------0-------0---0---0-------|----0---0---0-------0---0---0---0---|----0---0---0-----------0---0---0---|
|----1-----------1---1---1---1-------|----1---1---1-------1---1---1---1---|----1---1---1-----------1---1---1---|
|----2---------------2---2---2-------|----2---2---0-------0---0---0---0---|----2---2---2-----------2---2---2---|
|----3---3-----------3---3---3-------|----2---2---2-------2---2---2---2---|----3---3---3-----------3---3---3---|
|------------------------------------|----0---0---0-------0---0---0---0---|------------------------------------|
|------------------------------------|------------------------------------|------------------------------------|

|           |           |            |           |           |            |           |           |            
|----0-------0-------0-------0-------|----0-------------------------------|------------------------------------|
|----1-------1-------1-------1-------|----1-------------------------------|------------------------------------|
|----2-------2-------0-------0-------|----2-------------------------------|------------------------------------|
|----2-------2-------2-------2-------|----3-------------------------------|------------------------------------|
|----0-------0-------0-------0-------|------------------------------------|------------------------------------|
|------------------------------------|------------------------------------|------------------------------------|

 

 

Il ya les solos mais je pence que ma tab et suffisamment longue comme ca :p elle est complete et quand t'a fini guitare 1 t'enchaine avec 2 c'est dans l'ordre il jou pas en même temps

Je viens de finir de l'apprendre j'la trouve trés belle et cette tab est bonne

Lien à poster
Partager sur d’autres sites

ben jsuis désolé pour le 12 cordes mais quand j'ai extrait ca m'a fait ca =s

_____________________________________________________________________________________________________________________

 

 

 

 

Sujet déplacé par Bloody fingers.

Lien à poster
Partager sur d’autres sites

Veuillez vous connecter pour commenter

Vous pourrez laisser un commentaire après vous êtes connecté.



Connectez-vous maintenant
×
×
  • Créer...