Aller au contenu

[Les Ogres de Barback] 3-0


Messages recommandés

Salut tout le monde !

Je recherche des tablatures des Ogres de Barback, leurs mélodie sont vraiment bien.

Bonne journée.

 

Message de Slial:

Salut! tu as demandé plusieurs chansons dans un seul sujet, mais ici on classe par chansons, j'ai donc séparé les tablatures individuellement... c'est pourquoi ici tu ne trouvera que la première chansons postée et de plus, je te rappelle que tu es supposé inscrire le sujet du message de cette façon: « [Nom artiste] Titre chanson ». ...donc tu trouvera les autres sous «[Les Ogres de Barback] titre de la chanson » :)

Lien à poster
Partager sur d’autres sites

J'en est trouvé quelques une :

 


  C           G                              C
Y’a Paris, la capitale, qui renifle son trou de bals,
                     G                               C
Intra-muros c’est brillant, dehors c’est pour les paysans.
                                G                            C
D’ailleurs s’il n’en restait qu’une, ce serait sûr’ment celle-là :
                         G                                C
Qu’une aussi con que la lune et prétentieuse, comme il se doit.
       G                C               G                     C
Mais Paris, ça reste en France, les Français restent des Français,
      G             C            G           C
Les chevilles en évidence, le nombril insatisfait ! 

 

 



:Dm A7: Dm A7 Gm A Gm A Dm C :A# A7:


:Dm A7:

   Dm             A7                                 Dm      A7     Dm
   On adore les voyages bien qu'on ne voyage pas souvent, anhan, anhan,
                   A7                    Gm                    A
   On adore les Gitans bien qu'on n'les voit qu'de temps en temps
 Gm                           A                            Dm    Dm C A#
   Moi qui voulait être président, je n'suis même pas étudiant
                        A7  A#                                     A7 
   Et je joue d'l'accordéon, alors que j'trouve que c'est un instrument 
                 Dm     A7     Dm   A7
       pour les cons, anhan, anhan

 

Intro : G   Bm  Am  D    x2

G                           Bm 
Il faisait froid ce mois me semble t il 
Am                         D 
Tu avais mis ton beau complet habile 
Il y avait toi, moi et le mois d 'avril 
J'avais noté sur mon carnet utile 
Le bonheur était au complet, une cigarette au matin 
Nos cafés doux sur le chevet, le reflet de tes yeux châtains 

      G   Bm  Am  D  x2

On a ...
Pas de quoi ...
Que l'on ôtait ... 
Pour recouvrir nos corps...
Le bonheur était ...
Pas légal pas ...

Te souviens-tu ...
La nature ...
Et le silence ...
Nos souffles de ...
Le bonheur était ...
Juste nous deux et nos secrets...

C'est vrai ...
Le mien pressé ...
Et le vent fou ...
Pour rythmer nos ...
Le bonheur était ...
De rire au nez du chevet de notre ...

G   Bm  Am  D    x3

Je retournerai ...
Me souvenir ...
Dans la ...
Rire du ...
Le bonheur... 
de notre amour ...

Le bonheur sera incomplet alors j'irais tout oublier 
De notre amour inachevé pendu au dessus du chevet 

(En sifflant)   G   Bm  Am  D   x13  

 


Intro: Cm

      Cm
e|------3------3----------|
B|------4------4----------|
G|------5------5----------|    ( 4 fois )
D|------------------------|
A|-----------3------------|
E|----3-------------------|


couplet:

Eb                                            Bb
Sait on jamais où les vents nous mènent
Cm                       Gm
Moi ils sont venus me mettre un matin
G#                      Eb                         Bb
Hélas sur la route Rennes mauvais destin!

                 [...]

J'ai bien eu du mal à les reconnaître
Du au sérieux de leur tristes yeux peut-être
Je me suis aperçu qu'ils l'étaient tous devenu.


Alors...

Eb                                             G
Sait-on jamais où les vents nous mènent
Cm                       Bb 
Moi ils sont venus me prendre un matin
Eb                                              G
Sait on jamais où les vents nous mènent
Cm                         Bb 
moi ils se sont bien moques de ma peine

 


J'vous préviens 
qu'si y'a          arrêtez-moi       venez voir dans 
la guerre,        tout de suite,    mes affaires      
D                Em               D                A
|--5---5---5---5-|--7---7---7---7-|--5---5---5---5-|--5---5---5---6-|
|--7---7---7---7-|--8---8---8---8-|--7---7---7---7-|--5---5---5---6-|
|--7---7---7---7-|--9---9---9---9-|--7---7---7---7-|--6---6---6---7-|
|--------7-------|--------9-------|--------7-------|--------7-------|
|5-----------5---|7-----------7---|5-----------5---|7-----------8---|
|----5-----------|----7-----------|----5-----------|----5-----------|


y'aura deux trois   des polissons   qui chanteront   
déserteurs,        réformés,       la main au cœur
Bm               F#               Bm               A
|--7---7---7---7-|--9---9---9---9-|--7---7---7---7-|--5---5---5---5-|
|--7---7---7---7-|--11--11--11--11|--7---7---7---7-|--5---5---5---5-|
|--7---7---7---7-|--11--11--11--11|--7---7---7---7-|--6---6---6---6-|
|--------9-------|--------11------|--------9-------|--------7-------|
|9-----------9---|9-----------9---|9-----------9---|7-----------7---|
|----7-----------|----9-----------|----7-----------|----5-----------|


la la la          la la la          la la la        
D                A                D                A
|--5---5---5---5-|--5---5---5---5-|--5---5---5---5-|--5---5---5---5-|
|--7---7---7---7-|--5---5---5---5-|--7---7---7---7-|--5---5---5---5-|
|--7---7---7---7-|--6---6---6---6-|--7---7---7---7-|--6---6---6---6-|
|--7---7---7---7-|--7---7---7---7-|--7---7---7---7-|--7---7---7---7-|
|--5---5---5---5-|--7---7---7---7-|--5---5---5---5-|--7---7---7---7-|
|--5---5---5---5-|--5---5---5---5-|--5---5---5---5-|--5---5---5---5-|


Et si y'a révolution     venez voir
arrêtez moi tout de suite,    l'habitation    qui entoure ma suite,
D                Em               D                A
|--5---5---5---5-|--7---7---7---7-|--5---5---5---5-|--5---5---5---6-|
|--7---7---7---7-|--8---8---8---8-|--7---7---7---7-|--5---5---5---6-|
|--7---7---7---7-|--9---9---9---9-|--7---7---7---7-|--6---6---6---7-|
|--------7-------|--------9-------|--------7-------|--------7---8---|
|5-----------5---|7-----------7---|5-----------5---|7---------------|
|----5-----------|----7-----------|----5-----------|----5-----------|


y'aura de bonnes   des cocktails     des tire-flemme   
préparations,     façon maison,    et des lance-cœur  
Bm               F#               Bm               A
|--7---7---7---7-|--9---9---9---9-|--7---7---7---7-|--5---5---5---5-|
|--7---7---7---7-|--11--11--11--11|--7---7---7---7-|--5---5---5---5-|
|--7---7---7---7-|--11--11--11--11|--7---7---7---7-|--6---6---6---6-|
|9-----------9---|11----------11--|9-----------9---|7-----------7---|
|----9-----------|----9-----------|----9-----------|----7-----------|
|--------7-------|--------9-------|--------7-------|--------5-------|

Mais faudra pas  si après vous          et que nous,     
venir pleurer   êtes tous tués    même emprisonnés,  
D       G        A                G                A
|--5---5---3---3-|--5---5---5---5-|--3---3---3---3-|--5---5---5---5-|
|--7---5---3---3-|--5---5---5---5-|--3---3---3---3-|--5---5---5---5-|
|--7---7---4---4-|--6---6---6---6-|--4---4---4---4-|--6---6---6---6-|
|7-------5-------|----------------|----------------|----------------|
|----5-------5---|7-------7-------|5-------5-------|7-------7-------|
|----------------|----5-------5---|----3-------3---|----5-------5---|

la la la          la la la          la la la        
D                A                D                A
|--5---5---5---5-|--5---5---5---5-|--5---5---5---5-|--5---5---5---5-|
|--7---7---7---7-|--5---5---5---5-|--7---7---7---7-|--5---5---5---5-|
|--7---7---7---7-|--6---6---6---6-|--7---7---7---7-|--6---6---6---6-|
|--7---7---7---7-|--7---7---7---7-|--7---7---7---7-|--7---7---7---7-|
|--5---5---5---5-|--7---7---7---7-|--5---5---5---5-|--7---7---7---7-|
|--5---5---5---5-|--5---5---5---5-|--5---5---5---5-|--5---5---5---5-| 

 

__________________________


Intro: Em - D7 - C7 - D7 


    Em
T'es parti en tournée, t'as laissé ton gosse ton aimée 
             D7
Tu m'as d'mandé pourquoi? passe voir si tous s'passe bien chez moi
  C7
Ta femme j'l'aimais bien on s'est trouvé des points communs
        D7
Après tu connais l'refrain pas besoin d'te faire un dessin

 


   Fa#m                                       Do#m   
Depuis qu’elle m’a traité de chien, je n’vais pas bien.
   Fa#m                              Do#m
J’aboie partout comme un toutou, comme un toutou !
   Sim                       Do#m                  Fa#m
J’ai les oreilles taillées en pointe, le nez qui suinte,
   Fa#m                 Do#m                             Fa#m     
Je bave sur les rideaux satin et j’ai des corps sous mes coussins.

   Mi               La       Mi             La 
Elle m’a dressé au poil, je suis aux pieds fidèle. 
   Do#m            Fa#m     Do#m         Fa#m     
Si mademoiselle râle, elle peut m’être infidèle ... 

 


Album : croc'noces

Accords :
Dm  xx0231 --) x57765
Em  022000 --) x79987
Am  x02210 --) 577555


Intro :
Am  Am  Em  Em  x2
Dm  Em  Dm  Em


Am                Em            Dm               Am
Je me souviens du temps où l'on jouait pour deux francs
Dm                              Am               Dm                  Em
Au mieux le soir contre un coup à boire le sourire d'une fille en pourboire
Dm                Am            Em             Am
Je me souviens de ce temps, pauvre mais pas mécontent 
Dm                Am                 Em                  Am
De remplacer mon manque d'argent par le sourire de tous ces gens.

Am  Am  Em  Em 

 

(intro)Domin (8 mesures)
1                                                     3
!--------------------!------------------ !--------------------!------------------ !
!-----4-4----4-4---!------4-4----4-4---- !-----4-4----4-4---!------4-4----4-4 !
!-----5-5----5-5---!------5-5----5-5---- !-----5-5----5-5---!------5-5----5-5 !
!-----5-5----5-5---!------5-5----5-5---- !-----5-5----5-5---!------5-5----5-5 !
!-3------------------!---3-------------- !-3----------------- !---3------------- !
!-----------3------- !-----------3------ !-----------3------- !-----------3----- !

5                                                     7
!--------------------!------------------ !--------------------!------------------ !
!-----4-4----4-4---!------4-4----4-4 !-----4-4----4-4---!------4-4----4-4 !
!-----5-5----5-5---!------5-5----5-5 !-----5-5----5-5---!------5-5----5-5 !
!-----5-5----5-5---!------5-5----5-5 !-----5-5----5-5---!------5-5----5-5 !
!-3------------------!---3------------- !-3----------------- !---3------------- !
!-----------3------- !-----------3----- !-----------3------- !-----------3----- !

8
!--------------------!
!-----4-4----4-4---!
!-----5-5----5-5---!
!-----5-5----5-5---!
!-3------------------!
!-----------3------- !

partie instrumentale(accordéon)
A
Domin                  LadièseMaj     Sol maj                Domin
!------------------- !------------------- !------------------- !------------------- !
!-----4-4----4-4-- !----6-6----6-6--- !----3-3----3-3--- !----4-4----4-4--- !
!-----5-5----5-5-- !----7-7----7-7--- !----4-4----4-4--- !----5-5----5-5--- !
!-----5-5----5-5-- !----8-8----8-8--- !----5-5----5-5--- !----5-5----5-5--- !
!-3---------------- !-8----------------- !-5-----------------!-3----------------- !
!----------3------- !----------6-------- !---------3-------- !---------3--------- !
A
Domin                  LadièseMaj     Sol maj                Domin
!------------------- !------------------- !------------------- !------------------- !
!-----4-4----4-4-- !----6-6----6-6--- !----3-3----3-3--- !----4-4----4-4--- !
!-----5-5----5-5-- !----7-7----7-7--- !----4-4----4-4--- !----5-5----5-5--- !
!-----5-5----5-5-- !----8-8----8-8--- !----5-5----5-5--- !----5-5----5-5--- !
!-3---------------- !-8----------------- !-5-----------------!-3----------------- !
!----------3------- !----------6-------- !---------3-------- !---------3--------- !








B
LadièseMaj          Sol Maj              SoldièseMaj        Sol Maj
!------------------- !------------------- !------------------- !------------------- !
!----6-6----6-6--- !----3-3----3-3--- !----4-4----4-4--- !----3-3----3-3--- !
!----7-7----7-7--- !----4-4----4-4--- !----5-5----5-5--- !----4-4----4-4--- !
!----8-8----8-8--- !----5-5----5-5--- !----6-6----6-6--- !----5-5----5-5--- !
!-8-----------------!-5------------------!-6---------------- !-5-----------------!
!---------6---------!----------3-------- !---------4-------- !----------3--------!
A
Domin                  LadièseMaj     Sol maj                Domin
!------------------- !------------------- !------------------- !------------------- !
!-----4-4----4-4-- !----6-6----6-6--- !----3-3----3-3--- !----4-4----4-4--- !
!-----5-5----5-5-- !----7-7----7-7--- !----4-4----4-4--- !----5-5----5-5--- !
!-----5-5----5-5-- !----8-8----8-8--- !----5-5----5-5--- !----5-5----5-5--- !
!-3---------------- !-8----------------- !-5-----------------!-3----------------- !
!----------3------- !----------6-------- !---------3-------- !---------3--------- !
C
Domin                 Rémin                  Sol Maj              Domin
!------------------- !------------------- !------------------- !------------------- !
!----4-4----4-4--- !----6-6----6-6--- !----3-3----3-3--- !----4-4----4-4--- !
!----5-5----5-5--- !----7-7----7-7--- !----4-4----4-4--- !----5-5----5-5--- !
!----5-5----5-5--- !----7-7----7-7--- !----5-5----5-5--- !----5-5----5-5--- !
!-3---------------- !-5----------------- !-5---------------- !-3----------------- !
!---------3-------- !---------5--------- !---------3-------- !----------3-------- !
C
Domin                 Rémin                  Sol Maj              Domin
!------------------- !------------------- !------------------- !------------------- !
!----4-4----4-4--- !----6-6----6-6--- !----3-3----3-3--- !----4-4----4-4--- !
!----5-5----5-5--- !----7-7----7-7--- !----4-4----4-4--- !----5-5----5-5--- !
!----5-5----5-5--- !----7-7----7-7--- !----5-5----5-5--- !----5-5----5-5--- !
!-3---------------- !-5----------------- !-5---------------- !-3----------------- !
!---------3-------- !---------5--------- !---------3-------- !----------3-------- !

 


       Am                             Em
Habitué par son âge, il n’attend plus grand chose
                 Em                       Am
Que de mauvais présages dans cette vie morose
                        Am                             Em
Un doigt plus haut que l’autre, il n’entend plus les siens
                 Em                           Am
Les paroles des nôtres, monsieur perd ses copains !

capo 4 possib'


 


Rém Sib La Rém

          Rém
Sur mon carnet
           Sib
J'écris ton ...
       La
Toi que je ne .........
          Rém
Sûrement .......

          Rém      Sib
Dans un village ......
            La
Un monde s'.......
             Solm
Mon monde s'......
La
Toi qui ne le .........
          Rém
Sûrement .......

             La
Si j'étais resté ........
          Rém
A ne rien .........
             Do
Trainer dans ............
                    Fa
J'crois pas  ............
              La
Et puisqu'elle m'a dit ............

         Rém
Tes souvenirs
              Sib
Sont comme ............
           La
Ce sont les .......
                Rém
Quand on ne sait......

                Ré#m
On s'invente ... .....
          Si
Excuses ........
                 La#
On dit qu'on s'..........
        Rém
"Ah ou est-il ?"

Rém Si La# Rém (Mim)
Mim Do Si Mim

             Mim
J'te parlerai....
              Do
D'erreur de .........
              Si                   Mim 
Vu qu'y a qu'les grands..........

            Lam
Plutôt d'une .....
            Do
Histoire de .......
           Si                    Mim
Ou la fesse m'a pris pour .......

              Si
Si j'étais resté ......
          Mim
A ne rien ............
            Ré
Trainer dans ........
                    Sol
J'crois pas ..........
              Si
Et puisqu'elle ......

                  Si Mim Si Mim Lam Ré Si...
C'est ce que j'ai fait

 


Rém  Fa  Do Sib(1)  La Sib(2)
|-5-| |-5-| |-3-| |-6-| |-5-| |-1-|
|-5-| |-6-| |-5-| |-6-| |-5-| |-3-|
|-6-| |-5-| |-5-| |-7-| |-6-| |-3-|
|-7-| |-7-| |-5-| |-8-| |-7-| |-3-|
|-7-| |-8-| |-3-| |-8-| |-7-| |-1-|
|-5-| |-5-| |-3-| |-6-| |-5-| |-1-|




Rém     Fa  Do       Rém
Il y a des fantômes dans ma ville, que dérangent les cris d'enfants,
Rém       Fa Do       Sib(1)
Qui trouvent le temps inutile, si on le passe en s'amusant.
       Do        Rém   Do Rém
Ils ont vue sur mon jardin et ils ont l'écho du son
Rém      Fa     Do   Rém
Des barbecues, des copains, si l’on sort l'accordéon.

Sib      La    Rém    Sib   La      Rém
Oh ! fantôme des villes nouvelles  _  et de tes quartiers sans âme,
Sib      La Rém   Sib        La Rém
De tes centres commerciaux sans ciel,  _  de tes faux plafonds infâmes.

Rém Do Sib(2) Do

Je m'enfuis pour une vie nouvelle  ...


/ Il y a aussi une petite descente vers la fin du morceau assez 
/ sympathique,je pense que ça sonne comme ça mais je suis ouvert à toutes
/ suggestions, c'est la première fois que je tire un morceau pour des
/ gens :

E|---------5-----------------5-----------------5-----------------5--------
B|------6-------6---------6-------6---------6-------6---------6-------6---
G|-7-----------------5-----------------7-----------------5----------------

E|---------5-----------------5-----------------3-----------------5--------
B|------6-------6---------6-------6---------5-------5---------5-------5---
G|-7-----------------5-----------------5-----------------5------









http://www.broz-reggae-tabs.com 	

 


Mim Do Lam Si (x2)

Mim               Do            Lam        Si
Un beau jour que j'allais aller, aller à l'école
Mim           Do            Lam             Si
Une idée bizarre me suivait comme un pot de colle 
Mim          Do         Ré                  Si
Elle s'accrochait à moi, à mes chaussettes
Mim           Do        Ré        Si
Comme un poisson pilote à sa roussette


Je lui dis "Va-t-en, j'ai pas l'temps, il faut qu'je décolle"
Mais elle ne m'écoutait pas, elle était un peu folle
Elle attendait de moi que je m'arrête
Pour grimper de mes pieds jusqu'à ma tête

Mim Do Mim Do Mim Do Si7 (x2)

Elle avait de petits bras et pleins de poils pour gratter
Et de très grands yeux tout ronds où l'on peut se regarder
Elle m'a tant et tant chatouillé le menton
Que je me suis cogné, cogné le front 

 

 


Dom Sib Dom Sib (x3)
Mib Sib Dom
Mib Sib Dom Sol7

               Mib
Ca sent le printemps et ses couplets
           Sib
Qu'a jamais trahi son secret
            Dom
Ca sent les champs verts et fleuris
           Dom
Quand on retrouve ses amis
        Mib
Ca sent l'retour d'un ami
          Sib
Qu'était parti chercher l'oubli
              Dom                 Sol7
D'une fille dont il était morgane


                   [...]


  Mib             Sib           Dom                 Sol7
Et moi, en cette saison, entre hiver et été, ça m'revient
  Mib          Sib              Dom
Ca fait déjà un an qu'tu m'as quitté
   Mib             Sib           Dom                 Sol7
Oui moi, en cette saison, entre hiver et été, j'me souviens 
           Mib            Sib        Dom
J'crois qu'j'vais avoir du mal à t'oublier

Dom Sib Dom Sib (ad lib.)

 


Accords:

X13311
335543
577655
133211

Avec de temps à autre sur la premiere corde: 1--3--5 puis les accords

voila voila,bonne musique







__________________________________________________________________________

Partition transcrite par tiouz (mattmazert@hotmail.com)
Instrument : Guitare
__________________________________________________________________________


Album : Rue du temps


Dans une rue de Panam    Bb F
Errant au bord de l'eau  F Bb F
j'fumais mon Amsterdam  Bb F
pour finir au bistrot    F Bb F

Y'avait là deux-trois femmes Gm Dm
qui faisaient le tapin   Gm Dm
moi j'aiguisais ma lame  Gm Dm
pour planter les rupins   Dm Cm F

 


F
C’est une rue pas très grande
              C
Avec trois fleurs et deux oiseaux,
       F
On y vend de la pâte aux amandes
            C
Des cacahuètes et du Bordeaux.
         F
Y’a un mec sur un banc
     C
Qui s’est fait larguer par la Lise,
            Dm
Ca nous étonne pas vraiment,
     C
Elle change de mec comme de chemise.
   F
Et passe et repasse le temps,
     C
Mes souvenirs et ma joie.
               Dm
Dans cette rue déjà tout enfant
           C
J’apprenais l’harmonica.

Pont :
F   C   Dm   C

 


Album : Terrain vague (2004)

Cm(81010888) ou (81010988)
Em(779987)
D(557775)
G(355433)


Cm                          Em
La plus jolie est à Cergy, la plus à l’aise est Angolaise,
D                                  G
Elles ont le teint doux à Moscou et la peau sèche à Marrakech. 
Cm                                 Em
Elles se la coulent douce à Kaboul, se destressent à Los Angeles
D                             G
Elles ont du cran à Téhéran et du bagou à Katmandou

.....

Refrain:

Mais jamais, au grand jamais, je n’en ai vu de plus mûre
Que celle-là, un soir de mai, dans cette rue de Saumur.  

 


Rythmique : mouvement de valse saccadé.

               Bm            F#7                          Bm
J'vous l'raconte comme ça, si j'avais été jolie fille.
                                                    F#7                                         Bm
Tous les grands mecs tous les beaux gars, j'les aurais pris entre mes quilles.
           Em           Bm       A          Bm
J'aurais fait de mon lit une sorte de banc
                   F#7                                             Bm
Public où l'on peut s'asseoir pour prendre du bon temps.

...


Pont :  
Bm F#7 Bm F#7 Bm Cm

           Cm                 G                                       Cm
O mon Dieu pardonne moi, je voudrais être une diablesse.
                                  G                                            Cm
Le peu qu'il reste de ma foi je te l'échange contre une caresse
          Fm                    Cm                   Bb                 Cm
Et mille hommes venus d'ailleurs qui se mettent à mes genoux,
                           G                                         Cm
Et qui ne pensent d'ailleurs qu'à se pendre à mon cou.

....


Fm                  Cm                Bb                Cm
J'adorerais le silence, je briserais les mots d'amour,
Fm                          Cm            Bb                                  Cm
Je ferais pour ça, je pense, bien plus que l'on ne puisse en retour.
                   Fm                     Cm        Bb              Cm
Et cette chanson qui est un pêché, je ne la chanterai pas,
                                  G                                         Cm
Elle ne fait que me rappeler que j'ai gâché ma vie pour toi...

                 Bm                 F#7                          Bm
Mais j'vous l'raconte comme ça, si j'avais été jolie fille,
                              F#7
Mais hélas je n'le suis pas...
                                            Bm
Je n'suis qu'une nonne dans la ville ! 

 


Intro musicale :
Ab Eb Fm C C# Ab Eb Eb
C# Ab Bb C
C# C Fm Fm C# C Fm Fm

Ab      Eb    Fm  C#                  Ab        Eb
Convaincu d'avoir vécu, il plie ses mains sur ses paupières
       C#     Ab     Bb             C
Et la nuit déjà berce sa chaumière.
C#    C              Fm         C#   C             Fm
Il n'a plus rien à perdre. Il a déjà tout perdu.

....

Pont musical (même enchaînement que pour un couplet).

....

C#     C           Fm     C#     C      Fm
Ils n'ont plus rien à perdre. Ils ont déjà tout déçu.
Ils n'ont plus rien à perdre. ...


Deuxième guitare : 
Solo 1, à partir du couplet n°4 :
|--------------------------------9-9---8-------8-----13--12------|
|--------9-------9---9---------------------11--------------------|
|8---8-------------------10--------------------------------------|
|----------------------------------------------------------------|
|----------------------------------------------------------------|
|----------------------------------------------------------------|

|13--1315151516--16--13--1312121213--------------|
|------------------------------------------------|
|------------------------------------------------|
|------------------------------------------------|
|------------------------------------------------|
|------------------------------------------------|

Solo 2, pour le couplet n°5 :
|----------------------------------------9-9-9-8-8-9-8-----------|
|----9-------------------------------9-----------------9-118-9---|
|8-------10------10--10108-------10----------------------------10|
|--------------------------11------------------------------------|
|----------------------------------------------------------------|
|----------------------------------------------------------------|

|--------------9-8---------------|
|----8---9---9-----9-8-----8-----|
|10--------------------10------10|
|--------------------------------|
|--------------------------------|
|--------------------------------|

Solo 3, pendant le pont musical :
|----------------------------------------------------------8-13--|
|--------------------------------------------------------8-------|
|----8-7-8-10------------------------------------------9---------|
|6-------------10--11------8---1111------8---10--101110----------|
|----------------------11------------11--------------------------|
|----------------------------------------------------------------|

|1312121213----13--1312121213----|
|--------------------------------|
|--------------------------------|
|--------------------------------|
|--------------------------------|
|--------------------------------|

Solo 4, à partir du couplet n°7 :
|------------------------------------------------------------8-13|
|9---8-----------------------------------------------------8-----|
|--------10------10--8-----------------------------------9-------|
|------------------------11------1111--10--8-------101110--------|
|----------------------------------------------10----------------|
|----------------------------------------------------------------|

|--1312121213----9-8---------------------------------------------|
|--------------9-----9-8-------------------9-8---------8-8-8-9---|
|------------------------10--109-9-9-10--10----8-10--10----------|
|----------------------------------------------------------------|
|----------------------------------------------------------------|
|----------------------------------------------------------------|

|--9-8---------------------------|
|9-----9-8-----------------------|
|----------10--109-9-9-10--------|
|--------------------------------|
|--------------------------------|
|--------------------------------|
Faire la fin du solo en boucle jusqu'à la fin du texte.


Solo 5, pour le final :

|----------------8-13--1312121213--9-8---------------------------|
|--------------9-----------------9-----9-8-9---------------------|
|------------10------------------------------10109-------9-10----|
|101110--8-10--------------------------------------108-10--------|
|------11------------------------------------------------------8-|
|----------------------------------------------------------------|

|------------------------------------------------------------1312|
|--------------------------------8-9-8---------9---119-----------|
|----------------109-131210--109-------8-10--10--10----10--------|
|----8---108-1110----------------------------------------1011----|
|1110--11--------------------------------------------------------|
|----------------------------------------------------------------|


|121213--16161513------------------------------------------8-9---|
|----------------141413----13--------------------9-8-----------11|
|----------------------1315--1012101012--------10----8-10--------|
|----------------------------------------10--8-------------------|
|------------------------------------------11--------------------|
|----------------------------------------------------------------|

|8--------------------------------------13--15151516--13-|
|--9-118-9-8-9-8-----------------------------------------|
|----------------8-------------------10------------------|
|------------------10--1010101011109---------------------|
|--------------------------------------------------------|
|--------------------------------------------------------|

|1313119---9-----------------9---9---9---8---8---8---8---8---8---|
|------------9-8---------9-----11--11------9---9-------9---9---9-|
|----------------8-10--10----------------------------------------|
|----------------------------------------------------------------|
|----------------------------------------------------------------|
|----------------------------------------------------------------|

|8---8-9-8-------------------------------------------------------|
|----------119-8-------------------------------------------------|
|----------------109---------------------------------------------|
|--------------------11108-8-------------------------------------|
|----------------------------10118---8---8---------6---6-8-------|
|----------------------------------------------6-8---8-----------|

 

 

SOURCE : http://www.broz-reggae-tabs.com/tab_post/liste_tab.php?n=232

 

Voilà j'espere que ça ira :/

Lien à poster
Partager sur d’autres sites

Veuillez vous connecter pour commenter

Vous pourrez laisser un commentaire après vous êtes connecté.



Connectez-vous maintenant
×
×
  • Créer...