Aller au contenu

[Les Ogres de Barback] Tout Perdu


Messages recommandés

Sujet divisé par chanson!

 

merci à Bérénice de la demande et merci à FOwear d'avoir posté les partition!

 

 

 

Salut tout le monde !

Je recherche des tablatures des Ogres de Barback, leurs mélodie sont vraiment bien.

Bonne journée.

 

 

Message de Slial:

Salut! tu as demandé plusieurs chansons dans un seul sujet, mais ici on classe par chansons, j'ai donc séparé les tablatures individuellement... c'est pourquoi ici tu ne trouvera que la première chansons postée et de plus, je te rappelle que tu es supposé inscrire le sujet du message de cette façon: « [Nom artiste] Titre chanson ». ...donc tu trouvera les autres sous «[Les Ogres de Barback] titre de la chanson »

:)

J'en est trouvé quelques une :

 


Intro musicale :
Ab Eb Fm C C# Ab Eb Eb
C# Ab Bb C
C# C Fm Fm C# C Fm Fm

Ab      Eb    Fm  C#                  Ab        Eb
Convaincu d'avoir vécu, il plie ses mains sur ses paupières
       C#     Ab     Bb             C
Et la nuit déjà berce sa chaumière.
C#    C              Fm         C#   C             Fm
Il n'a plus rien à perdre. Il a déjà tout perdu.

....

Pont musical (même enchaînement que pour un couplet).

....

C#     C           Fm     C#     C      Fm
Ils n'ont plus rien à perdre. Ils ont déjà tout déçu.
Ils n'ont plus rien à perdre. ...


Deuxième guitare : 
Solo 1, à partir du couplet n°4 :
|--------------------------------9-9---8-------8-----13--12------|
|--------9-------9---9---------------------11--------------------|
|8---8-------------------10--------------------------------------|
|----------------------------------------------------------------|
|----------------------------------------------------------------|
|----------------------------------------------------------------|

|13--1315151516--16--13--1312121213--------------|
|------------------------------------------------|
|------------------------------------------------|
|------------------------------------------------|
|------------------------------------------------|
|------------------------------------------------|

Solo 2, pour le couplet n°5 :
|----------------------------------------9-9-9-8-8-9-8-----------|
|----9-------------------------------9-----------------9-118-9---|
|8-------10------10--10108-------10----------------------------10|
|--------------------------11------------------------------------|
|----------------------------------------------------------------|
|----------------------------------------------------------------|

|--------------9-8---------------|
|----8---9---9-----9-8-----8-----|
|10--------------------10------10|
|--------------------------------|
|--------------------------------|
|--------------------------------|

Solo 3, pendant le pont musical :
|----------------------------------------------------------8-13--|
|--------------------------------------------------------8-------|
|----8-7-8-10------------------------------------------9---------|
|6-------------10--11------8---1111------8---10--101110----------|
|----------------------11------------11--------------------------|
|----------------------------------------------------------------|

|1312121213----13--1312121213----|
|--------------------------------|
|--------------------------------|
|--------------------------------|
|--------------------------------|
|--------------------------------|

Solo 4, à partir du couplet n°7 :
|------------------------------------------------------------8-13|
|9---8-----------------------------------------------------8-----|
|--------10------10--8-----------------------------------9-------|
|------------------------11------1111--10--8-------101110--------|
|----------------------------------------------10----------------|
|----------------------------------------------------------------|

|--1312121213----9-8---------------------------------------------|
|--------------9-----9-8-------------------9-8---------8-8-8-9---|
|------------------------10--109-9-9-10--10----8-10--10----------|
|----------------------------------------------------------------|
|----------------------------------------------------------------|
|----------------------------------------------------------------|

|--9-8---------------------------|
|9-----9-8-----------------------|
|----------10--109-9-9-10--------|
|--------------------------------|
|--------------------------------|
|--------------------------------|
Faire la fin du solo en boucle jusqu'à la fin du texte.


Solo 5, pour le final :

|----------------8-13--1312121213--9-8---------------------------|
|--------------9-----------------9-----9-8-9---------------------|
|------------10------------------------------10109-------9-10----|
|101110--8-10--------------------------------------108-10--------|
|------11------------------------------------------------------8-|
|----------------------------------------------------------------|

|------------------------------------------------------------1312|
|--------------------------------8-9-8---------9---119-----------|
|----------------109-131210--109-------8-10--10--10----10--------|
|----8---108-1110----------------------------------------1011----|
|1110--11--------------------------------------------------------|
|----------------------------------------------------------------|


|121213--16161513------------------------------------------8-9---|
|----------------141413----13--------------------9-8-----------11|
|----------------------1315--1012101012--------10----8-10--------|
|----------------------------------------10--8-------------------|
|------------------------------------------11--------------------|
|----------------------------------------------------------------|

|8--------------------------------------13--15151516--13-|
|--9-118-9-8-9-8-----------------------------------------|
|----------------8-------------------10------------------|
|------------------10--1010101011109---------------------|
|--------------------------------------------------------|
|--------------------------------------------------------|

|1313119---9-----------------9---9---9---8---8---8---8---8---8---|
|------------9-8---------9-----11--11------9---9-------9---9---9-|
|----------------8-10--10----------------------------------------|
|----------------------------------------------------------------|
|----------------------------------------------------------------|
|----------------------------------------------------------------|

|8---8-9-8-------------------------------------------------------|
|----------119-8-------------------------------------------------|
|----------------109---------------------------------------------|
|--------------------11108-8-------------------------------------|
|----------------------------10118---8---8---------6---6-8-------|
|----------------------------------------------6-8---8-----------|

 

 

SOURCE : http://www.broz-reggae-tabs.com/tab_post/liste_tab.php?n=232

 

Voilà j'espere que ça ira :/

Lien à poster
Partager sur d’autres sites

Veuillez vous connecter pour commenter

Vous pourrez laisser un commentaire après vous êtes connecté.



Connectez-vous maintenant
×
×
  • Créer...