Aller au contenu

[Marilyn Manson] Sweet dreams


Messages recommandés

Salut ! J'ai chercher sur internet, j'ai trouver plusiquers résultat différent des uns des autres, bref, je me suis perdu...

 

Et sur le site, j'ai pas trouver, si jamais il y a, excusez moi ^^

 

Bref, je Cherche le reprise de Sweet Dreams par Manson, c'est à dire sa :

 

 

 

merci à vous les gens ^^

Lien à poster
Partager sur d’autres sites
Riff1

e |------------------------------------------------|
B |------------------------------------------------|
G |------------------------------------------------|
D |-------5-----6-----5----------------------------|
A |-3--3-----3-----3-----3--------6/8--------5/6---|
E |-------------------------4--4-------3--3--------|


Riff2

e |------------------------------------------------|
B |------------------------------------------------|
G |------------------------------------------------|
D |-------5-5--6-6--5-5----------------------------|
A |-3--3-----------------------6-8--------5-6------|
E |----------------------4--4-------3--3-----------|


Riff3

e |---------------------|--------------------------------------------------|
B |---------------------|--------------------------------------------------|
G |-5-5-5-5-5-5-5-5-5-5-|--------------------------------------------------|
D |-5-5-5-5-5-5-5-5-5-5-|-6-6-6-6-6-6-6-6-6-6--/-5-/--6-6-6-6-6-6-6-6------|
A |-3-3-3-3-3-3-3-3-3-3-|-6-6-6-6-6-6-6-6-6-6--/-5-/--6-6-6-6-6-6-6-6------|
E |---------------------|-4-4-4-4-4-4-4-4-4-4--/-3-/--4-4-4-4-4-4-4-4------|

e |-------------------------------------------------------|
B |-------------------------------------------------------|
G |-------------------------------------------------------|
D |-6-6--/-5-/--6-6-6-6-6-6-6-6-6-6--5-5-5-5-5-5-5-5-5----|
A |-6-6--/-5-/--6-6-6-6-6-6-6-6-6-6--5-5-5-5-5-5-5-5-5----|
E |-4-4--/-3-/--4-4-4-4-4-4-4-4-4-4--3-3-3-3-3-3-3-3-3----|


Riff4 (= Riff1)

e |------------------------------------------------|
B |------------------------------------------------|
G |------------------------------------------------|
D |-------5-----6-----5----------------------------|
A |-3--3-----3-----3-----3--------6/8--------5/6---|
E |-------------------------4--4-------3--3--------|


Riff5

e |-----------------------------------------------------------|
B |-----------------------------------------------------------|
G |-----------------------------------------------------------|
D |-------5-5--6-6--5-5---------------------------------------|
A |-3--3-----------------------5-6 [pppp]--/3----------------|
E |----------------------3--3---------------------------------|

Lien à poster
Partager sur d’autres sites
Alors, il y a diverses solutions à ton problème, mais je pense que la torture est la plus appropriée xD

 

il fait 30 cm en plus que moi et 50 kilos en plus, je crois pas que sa marcherais..

 

a moins de l'attirer avec un glace :D

 

Ouiap, j'ai fait l'intro hier, elle est vraiment cool à jouer, et pis, la voix de Manson est :top:

Lien à poster
Partager sur d’autres sites

Veuillez vous connecter pour commenter

Vous pourrez laisser un commentaire après vous êtes connecté.



Connectez-vous maintenant
×
×
  • Créer...