Aller au contenu

[Metallica] Nothing else matters


Messages recommandés

La superbe Nothing else matters !

[cette partition est un mélange de versions prises sur internet et de ce que je pensais le mieux comme je l'entend sur le cd... mais ce n'est pas moi qui ai fait le gros du travail, c-à-d, le déchiffrage d'après le cd...]

 

E-------0-----|-------0-----|-------0-----|-------0---7-|
B-----0---0---|-----0---0---|-----0---0---|-----0---0---|
G---0-------0-|---0-------0-|---0-------0-|---0---------|
D-------------|-------------|-------------|-------------|
A-------------|-------------|-------------|-------------|
E-0-----------|-0-----------|-0-----------|-0-----------|
              P                             H P S     P S
E-7-----------7^0---------|---------7---8---7^85---7-5^32-----|
B-----0-----------0-------|---------0---0-----------0-------5---|
G---------0-----------0---|-----0-------------------------------|
D-------------------------|-------------------------------------|
A-------------------------|-------------------------------------|
E-0-----------------------|-0-----------------------------------|
              P
E-------------2^0---------|-------------0---0---0---|
B-5-------5-------5-------|---------5-------5---5---|
G-----5---------------5---|-----5-----------5---5---|
D-------------------------|-------------------------|
A-0-----------------------|-0---------------0---2---|
E-------------------------|-------------------------|
              P                         H P   P   H
E-0-----------3^0-----0---|-0-----------0^5^0--------|
B-5-------5-------5---5---|-7-------7---------7^0-0^5|
G-5-----5---5-------5-5---|-7-----7---7--------------|
D-------------------------|--------------------------|
A-3---3---------------3---|-5---5--------------------|
E-------------------------|--------------------------|

E-------12----|-------0-----|-------0-----|-------0-----|
B-----12--0---|-----0---0---|-----0---0---|-----0---0---|
G---12------0-|---0-------0-|---0-------0-|---0-------0-|
D-------------|-------------|-------------|-------------|
A-------------|-------------|-------------|-------------|
E-0-----------|-0-----------|-0-----------|-0-----------|

E-------------7-----------|-------------|-------------7-----------|
B-------------8-----------|-----7-----5-|-------------8-----------|
G-----------9-------------|-----7-----5-|-----------9-------------|
D---------9---------------|---7-----5---|---------9---------------|
A-------7-----------------|-5-----3-----|-------7-----------------|
E-0-----------------------|-------------|-0-----------------------|

E-------------|-------------7-----------|-----5-----------3-------|
B-----7-----5-|-------------8-----------|-------7-----------5-----|
G-----7-----5-|---------9---------------|---------7-----------5---|
D---7-----5---|-----------9-------------|-----7-----------5-------|
A-5-----3-----|-------7-----------------|-5-----------3-----------|
E-------------|-0-----------------------|-------------------------|

E-----3-----------2-------|-------0-----|-------0-----|
B-------3-----------4-----|-----0---0---|-----0---0---|
G---------4-----------2---|---0-------0-|---0-------0-|
D-----5-----------4-------|-------------|-------------|
A-------------2-----------|-------------|-------------|
E-3-----------------------|-0-----------|-0-----------|

PREMIÈME PARTIE

partie 1, une guitare joue :

[Em]So close no matter [D]how far[C]

[Em]Couldn't be much more [D]from the heart[C]

[Em]Forever trusting [D]who we are[C]

[G]And [ B] nothing else [Em]matters

 

[Em]Never opened my[D]self this way[C]

[Em]Life is ours, we live it [D]our way[C]

[Em]All these words I don't [D]just say[C]

[G]And [ B]nothing else [Em]matters

 

[Em]Trust I seek and [D]find in you[C]

[Em]Every day for us [D]something new[C]

[Em]Open mind for a [D]different view[C]

[G]And [ B]nothing else [Em]matters

 

partie 1, et l'autre (la principale) joue, en même temps:

E-------------3-----0-----|-2-----3-----0-----------|
B---------0-----------0---|---------3-------3-------|
G-----0-----------0-----0-|-----------0-------0-----|
D-------------------------|-0-----------------------|
A-------------------------|-------------3-----------|
E-0-----------------------|---------------------3-2-|

E-------------3-----0-----|-2-----------------------|
B---------0-----------0---|-------3-----3-----------|
G-----0-----------0-----0-|---------2^0-----0-------|
D-------------------------|-0--0--------------------|
A-------------------------|-------------3-----------|
E-0-----------------------|---------------------3-2-|

E-------------3-----0-----|-2-----3-----3-----------|
B---------0-----------0---|---------3-------3-------|
G-----0-----------0-----0-|-----------0---------0---|
D-------------------------|-0--0--------------------|
A-------------------------|-------------3-----------|
E-0-----------------------|-------------------------|

E---------3---2-------2---|-0-----0-----|-------------0-----------|
B---------3---0---------0-|-----0---0---|---------0-------0-------|
G-----0-------2-----------|---0-------0-|-----0-------------------|
D-------------------------|-------------|-------------------------|
A-------------2-----2-----|-------------|-------------------------|
E-3-----------------------|-0-----------|-0-------------------3-2-|

REFRAIN

au refrain, une guitare joue:

[C] [A] [D] Never cared for what they [C]do

[A] [D] Never cared for what they [C]know

[A] [D] But I [Em]know

 

[Em]So close no matter [D]how far[C]

[Em]Couldn't be much more [D]from the heart[C]

[Em]Forever trusting [D]who we are[C]

[G]And [ B]nothing else [Em]matters

 

[C] [A] [D] Never cared for what they [C]do

[A] [D] Never cared for what they [C]know

[A] [D] But I [Em]know

 

au refrain, l'autre guitare joue en même temps:

                1   2   3   4   5   6
E-------------|-2-----2-2-2-3---2--0--2-|
B-1-----2-----|-3-----3-3-3-3---3--3--3-|
G-0-----2-----|-2-----2-2-2-2---2--2--2-|
D-2-----2-----|-0-----0-0-0-0---0--0--0-|
A-3-----0-----|-------------------------|
E-------------|-------------------------|

E-------------|-2-----2-2-2-3---2--0--2-|
B-1-----2-----|-3-----3-3-3-3---3--3--3-|
G-0-----2-----|-2-----2-2-2-2---2--2--2-|
D-2-----2-----|-0-----0-0-0-0---0--0--0-|
A-3-----0-----|-------------------------|
E-------------|-------------------------|

E-------------|-2-----2-2-2-0-----------|
B-1-----2-----|-3-----3-3-3-0-----------|
G-0-----2-----|-2-----2-2-2-0-----------|
D-2-----2-----|-0-----0-0-0-2-----------|
A-3-----0-----|-------------2-----------|
E-------------|-------------0-----------|

Interlude (joué plusieures fois ce bout....2 ou 3 fois je crois)

Guitar1
|-12------14---|-15-------17---|-8------8------|-------8--------|
|---12------12-|---12-------12-|---5------5----|----5-----5-----|
|--------------|---------------|-----5------5--|-5----------5--|
|--------------|---------------|---------------|----------------|
|--------------|---------------|---------------|----------------|
|--------------|---------------|---------------|----------------|
|Guitar2
|-15------17---|-19-------20---|-12------------|----------------|
|---17------17-|---17-------17-|---13----------|----------------|
|--------------|---------------|---------------|----------------|
|--------------|---------------|---------------|----------------|
|--------------|---------------|---------------|----------------|
|--------------|---------------|---------------|----------------|
Guitar1
|-0--------0---|-0--------0----|-0--7--7-0-----|--------0-------|
|----1-------1-|----3-------3--|-12--0---12-0--|------0---------|
|-------2------|-------2-------|------0-------0|----0-----------|
|--------------|---------------|---------------|----------------|
|--------------|---------------|---------------|----------------|
|--------------|---------------|---------------|-0--------------|
|Guitar2
|-12-----------|12/14----------|----12-12------|----------------|
|----13--------|----15---------|---------------|----------------|
|-------12-----|-------14------|---------------|----------------|
|--------------|---------------|---------------|----------------|
|--------------|---------------|---------------|----------------|
|--------------|---------------|---------------|----------------|
Guitar1
|-12------14---|-15-------17---|-8------8------|-------8--------|
|---12------12-|---12-------12-|---5------5----|----5-----5-----|
|--------------|---------------|-----5------5--|-5----------5--|
|--------------|---------------|---------------|----------------|
|--------------|---------------|---------------|----------------|
|--------------|---------------|---------------|----------------|
|Guitar2
|-15------17---|-19-------20---|-12------------|----------------|
|---17------17-|---17-------17-|---13----------|----------------|
|--------------|---------------|---------------|----------------|
|--------------|---------------|---------------|----------------|
|--------------|---------------|---------------|----------------|
|--------------|---------------|---------------|----------------|
Guitar1
|-0------0-----|-0------0------|-0-7----7-0----|--------0-------|
|---1------1---|---3------3----|----0-------0--|------0---0-----|
|-----2--------|-----2---------|-------0------0|----0-----------|
|--------------|---------------|---------------|----------------|
|--------------|---------------|---------------|----------------|
|--------------|---------------|---------------|-0----------3-2-|

PARTIE 2 (et l'autre guitare joue, en même temps comme la partie1)

[Em]Never opened my[D]self this way[C]

[Em]Life is ours, we live it [D]our way[C]

[Em]All these words I don't [D]just say[C]

[G]And [ B]nothing else [Em]matters

 

[Em]Trust I seek and [D]find in you[C]

[Em]Every day for us [D]something new[C]

[Em]Open mind for a [D]different view[C]

[G]And [ B]nothing else [Em]matters

 

[C] [A] [D] Never cared for what they [C]say

[A] [D] Never cared for what they [C]play

[A] [D] Never cared for what they [C]do

[A] [D] Never cared for what they [C]know

[A] [D] And I [Em]know

 

Solo

   B       B  R   V                            V
E---------------------------|-------------------------------------|
B-15------15----------------|-------------------------------------|
G-14(16)--14(16)14-12----12-|-11-12-11----11-------------12-14-12-|
D---------------------------|----------14----12-14----------------|
A---------------------------|-------------------------------------|
E---------------------------|-------------------------------------|
   B        B                            B  R                 V
E-------12-------12-------------------|---------------------------|
G----12-------12----15-12----12-------|------------14----14-13----|
G-14(16)---14(16)---------15----15-14-|-12(14)12---14----14-13-12-|
D-------------------------------------|---------14----------------|
A-------------------------------------|---------------------------|
E-------------------------------------|---------------------------|

 S                            H  P  S              V
E-/15-14----15-14-17-|-15----14^15^1412----15-14-|---------------
B--------12----------|-------------------12-------|-12------------
G--------------------|----------------------------|------12-14-12-
D--------------------|----------------------------|---------------
A--------------------|----------------------------|---------------
E--------------------|----------------------------|---------------
   B  R              B                B  R  P     B
E-------------------------|-12----------------------------|-------
B-15-------------------12-|-------15-15(17)15^12-15(17)---|-------
G-14(16)14-12----12-14(16)|-------------------------------|-------
D-------------14----------|-------------------------------|-------
A-------------------------|-------------------------------|-------
E-------------------------|-------------------------------|-------
   H  P       S     H P
E-----------------|--------------
B-12^15^127-|-5^7^5--------
G-----------------|--------------
D-----------------|--------------
A-----------------|--------------
E-----------------|--------------

on entend la mélodie suivante, en même temps que la fin de la tab précédente:

E-------0-----|-------0-----|-------0-----|-------0-----|
B-----0---0---|-----0---0---|-----0---0---|-----0---0---|
G---0-------0-|---0-------0-|---0-------0-|---0---------|
D-------------|-------------|-------------|-------------|
A-------------|-------------|-------------|-------------|
E-0-----------|-0-----------|-0-----------|-0-----------|[/size]

 

en dernier, avec le dernier couplet (à la place des accords, suivre la tab suivante):

[Em]So close no matter [D]how far[C]

[Em]Couldn't be much more [D]from the heart[C]

[Em]Forever trusting [D]who we are[C]

[G]And [ B]nothing else [Em]matters

 

E-------------3-----0-----|-2-----3-----0-----------|
B---------0-----------0---|---------3-------3-------|
G-----0-----------0-----0-|-----------0-------0-----|
D-------------------------|-0-----------------------|
A-------------------------|-------------3-----------|
E-0-----------------------|---------------------3-2-|

E-------------3-----0-----|-2-----------------------|
B---------0-----------0---|-------3-----3-----------|
G-----0-----------0-----0-|---------2^0-----0-------|
D-------------------------|-0--0--------------------|
A-------------------------|-------------3-----------|
E-0-----------------------|---------------------3-2-|

E-------------3-----0-----|-2-----3-----3-----------|
B---------0-----------0---|---------3-------3-------|
G-----0-----------0-----0-|-----------0---------0---|
D-------------------------|-0--0--------------------|
A-------------------------|-------------3-----------|
E-0-----------------------|-------------------------|

E---------3---2-----2-----|-0-----0-----|-------------0-----------|
B---------3---0-----0-----|-----0---0---|---------0-------0-------|
G-----0-------2-----2-----|---0-------0-|-----0-------------------|
D-------------------------|-------------|-------------------------|
A-------------2-----2-----|-------------|-------------------------|
E-3-----------------------|-0-----------|-0-------------------3-2-|

et la finale... répéter plusieures fois en fade out

E-0-----0-----|-------0---7-|-7-----------7^0---------|
B-----0---0---|-----0---0---|-----0-----------0-------|
G---0-------0-|---0---------|---------0-----------0---|
D-------------|-------------|-------------------------|
A-------------|-------------|-------------------------|
E-0-----------|-0-----------|-0-----------------------|

E---------7---8---7^8^75--7---52--0-|
B---------0---0------------0----------|
G-----0-------------------------------|
D-------------------------------------|
A-------------------------------------|
E-0-----------------------------------|

Lien à poster
Partager sur d’autres sites

ça fait plaisir! :top:

la rajouter impérativement sur le site au plus vite... bonne idée ;) (tu vas peut-être pouvoir t'en inspirer un peu :) et moi je vias pouvoir pratiquer un toute à 99,999% bonne quand tu vas la mettre :) )

 

 

édit: [hein, wow, je viens de voir qu'on a exactement 436 message tout les deux SuN! O_o ]

Lien à poster
Partager sur d’autres sites

j'ai le songbook du black album, tu pourras t'entrainer à 99.99% sur une transcription 100% juste ;)

 

C'est noté pour la prochaine maj du site (avec un autre énorme grand classique mais je dirais pas lequel :p ). Merci pour ce rappel Slial!

Lien à poster
Partager sur d’autres sites
  • 1 month later...

de rien ;)

 

mais celle que t'avais postée était déjà quasi parfaite, j'ai juste arrangé ca à la sauce de T4A en changeant les arpèges à certains endroits, vérifiants certains trucs...

Lien à poster
Partager sur d’autres sites
de rien ;)

mais celle que t'avais postée était déjà quasi parfaite, j'ai juste arrangé ca à la sauce de T4A en changeant les arpèges à certains endroits, vérifiants certains trucs...

8) merci merci! :):)

 

et PS, ya un truc qui marche pas sur la ''ligne'' 2 ... tu as écris 7-5h32--| ... mais je crois qu'il manque un ''-'' entre 3 et 2... surtout que cette corde (e) est moins longue que les autres, donc signe qu'il manque un espace! ...même genre de petit défault dans le solo, à 2 endroits et aussi dans l'Outro... voilà!

 

La mélodie de cette chanson est trop top !

Et c'est une des premiéres que j'ai entièrement apprise!

en effet!

et moi c'est aussi la première que j'ai apprise (avec Wish you were here)

Lien à poster
Partager sur d’autres sites

la flemme? ...je connais pas cette expression assez pour comprendre ce que tu veux dire! :(

...je croyais que ça voulais dire que c'était corrigé, mais si je vais voir, ça y est encore... :hum:

Lien à poster
Partager sur d’autres sites

:top: haha, en effet!

mais je dois dire que j'en donne à retordre aussi quelques fois... et c'est pour ça qu'on a un dictionnaire français-québéçois dans les hors sujets :D:D .... va falloir que je rajoute ça ''la flemme'' ;)

Lien à poster
Partager sur d’autres sites
  • 1 year later...
Tuning: Eb Ab Db Gb Bb Eb 

Intro 
6/8 time 
Eb-------0-----|-------0-----|-------0-----|-------0---7-| 
Bb-----0---0---|-----0---0---|-----0---0---|-----0---0---| 
Gb---0-------0-|---0-------0-|---0-------0-|---0---------| 
Db-------------|-------------|-------------|-------------| 
Ab-------------|-------------|-------------|-------------| 
Eb-0-----------|-0-----------|-0-----------|-0-----------| 
P (9/8 time) H P S P S 
Eb-7-----------7^0---------|---------7---8---7^85---7-5-/0------| 
Bb---------0-------0-------|---------0---0-----------0-------5---| 
Gb-----0---------------0---|-----0-------------------------------| 
Db-------------------------|-------------------------------------| 
Ab-------------------------|-------------------------------------| 
Eb-0-----------------------|-0-----------------------------------| 
P 
Eb-------------2^0---------|-------------0---0---0---| 
Bb-5-------5-------5-------|---------5-------5---5---| 
Gb-----5---------------5---|-----5-----------5---5---| 
Db-------------------------|-------------------------| 
Ab-0-----------------------|-0---------------0---2---| 
Eb-------------------------|-------------------------| 
P H P P H 
Eb-0-----------3^0-----0---|-0----------0^5^0---------| 
Bb-5-------5-------5---5---|-7---7-5-7--------7^0-5^0-| 
Gb-5-----5---5-------5-5---|-7------------------------| 
Db-------------------------|--------------------------| 
Ab-3---3---------------3---|-5------------------------| 
Eb-------------------------|--------------------------| 
<.NH.> 
Eb-------12----|-------0-----|-------0-----|-------0-----| 
Bb-----12--0---|-----0---0---|-----0---0---|-----0---0---| 
Gb---12------0-|---0-------0-|---0-------0-|---0-------0-| 
Db-------------|-------------|-------------|-------------| 
Ab-------------|-------------|-------------|-------------| 
Eb-0-----------|-0-----------|-0-----------|-0-----------| 
upstroke 
Eb-------------7---7-------|-------------|-------------7-----------| 
Bb-------------8---8-------|-----7-----5-|-------------8-----------| 
Gb-----------9-----9-------|-----7-----5-|-----------9-------------| 
Db---------9---------------|---7-----5---|---------9---------------| 
Ab-------7-----------------|-5-----3-----|-------7-----------------| 
Eb-0-----------------------|-------------|-0-----------------------| 

Eb-------------|----------7-----7--------|-----5-----------3-------| 
Bb-----7-----5-|----------------8--------|-------7-----------5-----| 
Gb-----7-----5-|-------------9-----------|---------7-----------5---| 
Db---7-----5---|-------------------------|-------------------------| 
Ab-5-----3-----|-------7-----------------|-5-----------3-----------| 
Eb-------------|-0-----------------------|-------------------------| 

Eb-----3-------------------|-------0-----(0------)|-------0-----| 
Bb-------3---------5-4-----|-----0---0---(-0-----)|-----0---0---| 
Gb---------4---------------|---0-------0-(--0----)|---0-------0-| 
Db-------------------------|-------------(---2---)|-------------| 
Ab-------------2-----------|-------------(----2--)|-------------| 
Eb-3-----------------------|-0-----------(-----0-)|-0-----------| 

Main guitar part : 
So close,no matter how far...... 
Eb-------------3----0---|-2---2-2-2-3--0--0-0-----| 
Bb---------0----------0-|-3---3-3-3-3--3--3-3-----| 
Gb-----0----------0-----|-2---2-2-2-2--0--0-0-----| repeat 2X 
Db----------------------|-0---0-0-0-0--2--2-2-----| 
Ab----------------------|--------------3--3-3-----| 
Eb-0--------------------|---------------------3-2-| 
Forever trusting who we are............and nothing else 
matters 
Eb-------------3----0---|-2---2-2-2-3--0--0-0-----------3--2------2---- 
Bb---------0----------0-|-3---3-3-3-3--3--3-3-----------3--0--------0-- 
Gb-----0----------0-----|-2---2-2-2-2--0--0-0---------0----2----------- 
Db----------------------|-0---0-0-0-0--2--2-2--------------1----1------ 
Ab----------------------|--------------3--3-3--------------2--2-------- 
Eb-0--------------------|---------------------0-2-3-------------------- 

Chorus guitar part 
Never cared for what they do........ 
Eb-0-----0-----|-2-----2-2-2-3---2--0--2-| 
Bb-1-----2-----|-3-----3-3-3-3---3--3--3-| 
Gb-0-----2-----|-2-----2-2-2-2---2--2--2-| 
Db-2-----2-----|-0-----0-0-0-0---0--0--0-| 
Ab-3-----0-----|-------------------------| 
Eb-------------|-------------------------| 

Eb-0-----0-----|-2-----2-2-2-3---2--0--2-| 
Bb-1-----2-----|-3-----3-3-3-3---3--3--3-| 
Gb-0-----2-----|-2-----2-2-2-2---2--2--2-| 
Db-2-----2-----|-0-----0-0-0-0---0--0--0-| 
Ab-3-----0-----|-------------------------| 
Eb-------------|-------------------------| 

Eb-0-----0-----|-2-----2-2-2-0-----------| 
Bb-1-----2-----|-3-----3-3-3-0-----------| 
Gb-0-----2-----|-2-----2-2-2-0-----------| 
Db-2-----2-----|-0-----0-0-0-2-----------| 
Ab-3-----0-----|-------------2-----------| 
Eb-------------|-------------0-----------| 

Interlude 
|-12------14---|-15-------17---|-8------8------|-------8--------| 
|---12------12-|---12-------12-|---5------5----|----5-----5-----| 
|--------------|---------------|-----5------5--|-5----------5--| 
|--------------|---------------|---------------|----------------| 
|--------------|---------------|--------------0|----------------| 
|--------------|---------------|---------------|----------------| 

|-0--------0---|-0^2--------0--|-0--0~~~~0~~~~~|--------0-------| 
|----1-------1-|-----3-------3-|-12-12~~~12~~~~|------0---0-----| 
|-------2------|--------2------|---------------|----0-------0---| 
|--------------|---------------|---------------|----------------| 
|--------------|---------------|---------------|----------------| 
|--------------|---------------|---------------|-0--------------| 

|-12------14---|-15-------17---|-8------8------|-8-----8--------| 
|---12------12-|---12-------12-|---5--------5--|---5-----5------| 
|--------------|---------------|-----5----5---5|-----5-----5----| 
|--------------|---------------|---------------|----------------| 
|--------------|---------------|---------------|----------------| 
|--------------|---------------|---------------|----------------| 

|-0--------0---|-0^2--------0--|-0--0~~~~0~~~~~|--------0---------| 
|----1-------1-|-----3-------3-|-12-12~~~12~~~~|------0---0-------| 
|-------2------|--------2------|---------------|----0-------0-----| 
|--------------|---------------|---------------|------------------| 
|--------------|---------------|---------------|------------------| 
|--------------|---------------|---------------|-0------------3-2-| 

Interlude solo * * 
Eb|--------3-----3--5--5(7)5--5-----3--5---10--7--6(8)6-- 
Bb|--3--5-----5------------------5----------------------- 

Eb|--10--6(8)6---10--6(8)6---10--6(8)6---10--6(8)6---3-0- 

*=bend and release 

GOTO MAIN GUITAR PART 

Guitar solo : 
E5 E5(VII) | D5(V) C5(III) 
E5 E5(VII) | D5(V) C5(III) 
E5 E5(VII) | D5(V) C5(III) | G5(III) B5(II) | E5 

B B R V V 
Eb---------------------------|-------------------------------------| 
Bb-15------15----------------|-------------------------------------| 
Gb-14(16)--14(16)14-12--14-12|-11-12-11----11-------------12-14-12-| 
Db---------------------------|----------14----12-14----------------| 
Ab---------------------------|-------------------------------------| 
Eb---------------------------|-------------------------------------| 
B B B 
Eb-------12-------12---------------------------hold bend-->--------| 
Gb----12-------12----15^14^12-(approx.8x )--15(17)-15-15-15--------| 
Gb-14(16)---14(16)---------------------|---------------------------| 
Db-------------------------------------|---------------------------| 
Ab-------------------------------------|---------------------------| 
Eb-------------------------------------|---------------------------| 
release bend 
Eb-15(17)--15---14-15-|----15-14----14-15-14-12|-------------------- 
Bb--------------------|-12-------12------------|-15-14-12----------- 
Gb--------------------|------------------------|-----------12-14-12- 
Db--------------------|------------------------|-------------------- 
Ab--------------------|------------------------|-------------------- 
Eb--------------------|------------------------|-------------------- 
B R B B R P B 
Eb-------------------------|-12--------------------hold----->-----release 
Bb----------------------12-|-------12-15(17)15--12^15(17)-15-15-15-15-15- 
Gb-14(16)14-12----12-14(16)|-------------------------------|------------- 
Db-------------14----------|-------------------------------|------------- 
Ab-------------------------|-------------------------------|------------- 
Eb-------------------------|-------------------------------|------------- 
H P S H P 
Eb----------------------------------- 
Bb-12^15^12~~~~~~7--5^7^5~~~~~~ 
Gb----------------------------------- 
Db----------------------------------- 
Ab----------------------------------- 
Eb----------------------------------- 

The end : 
E-------0-----|-------0---7-|-7-----------7^0---------| 
B-----0---0---|-----0---0---|---------0-------0-------| 
G---0-------0-|---0---------|-----0---------------0---| 
D-------------|-------------|-------------------------| 
A-------------|-------------|-------------------------| 
E-0-----------|-0-----------|-0-----------------------| 

E---------7---8---7^85---7-5-/0--0--0-| 
B---------0---0-----------0------------| 
G-----0--------------------------------| repeat 
D--------------------------------------| 
A--------------------------------------| 
E-0----------------------------------0-| 

Lien à poster
Partager sur d’autres sites

Puis ya une ou deux faute...

 

Eb-7-----------7^0---------|---------7---8---7^85---7-5-/0------|
Bb---------0-------0-------|---------0---0-----------0-------5---|
Gb-----0---------------0---|-----0-------------------------------|
Db-------------------------|-------------------------------------|
Ab-------------------------|-------------------------------------|
Eb-0-----------------------|-0-----------------------------------|
P
Eb-------------2^0---------|-------------0---0---0---|
Bb-5-------5-------5-------|---------5-------5---5---|
Gb-----5---------------5---|-----5-----------5---5---|
Db-------------------------|-------------------------|
Ab-0-----------------------|-0---------------0---2---|
Eb-------------------------|-------------------------|
P H P P H
Eb-0-----------3^0-----0---|-0----------0^5^0---------|
Bb-5-------5-------5---5---|-7---7-5-7--------7^0-0^5-|   <-- par exemple là, c'est plutôt ça
Gb-5-----5---5-------5-5---|-7------------------------|
Db-------------------------|--------------------------|
Ab-3---3---------------3---|-5------------------------|
Eb-------------------------|--------------------------| 

Lien à poster
Partager sur d’autres sites
  • 7 months later...

Bonjour,

 

j'ai une petite question, je débute et je me demande comment on joue la partie en rouge de la tablature ? faut il gratter les deux cordes en même temps ? ou pas vue que c'est une partie en arpége ?

 

E7-----------7^0---------|---------7---8---7^85---7-5^32-----|

B -----0-----------0-------|---------0---0-----------0-------5---|

G---------0-----------0---|-----0-------------------------------|

D-------------------------|-------------------------------------|

A-------------------------|-------------------------------------|

E0-----------------------|-0-----------------------------------|

 

d'avance merci de votre réponse.

 

Cyrilou06

Lien à poster
Partager sur d’autres sites

Déjà pour jouer cette chanson tu bannis le médiator ^^ ( Sauf pour le solo )

Dans la partie que tu donne en fait il faut pincer les 2 cordes en mêmes temps

Lien à poster
Partager sur d’autres sites

ho merci merci beaucoup !!!!!! :love:

 

Je vais la proposer à mon frangin, peut être qu'il acceptera de la jouer avec moi. Il se collera les parties vraiment techniques et je pourrai peut être jouer les parties mélodiques secondaires, qui m'ont l'air abordables. En plus, côté travail, c'est interressant, j'en apprendrai beaucoup, et mon oreille ne s'en portera que mieux, car en plus de moi, il faudra que j'écoute l'autre joueur.

Ca peut être trés productif, pour un débutant, les morceaux à deux guitares non ? Ou tout simplement jouer avec quelqu'un remarquez... :hum: Une fois, on avait fait le test avec le frangin, je jouais la partie mélodique d'un morceau que j'apprenais, comme je pouvais, avec des couacs et cratchs :p , il s'est mis à improviser une basse dessus, ça m'a destabilisée au début, pas l'habitude de jouer devant quelqu'un et en plus qui intervient dans mon morceau :furax: , puis je m'y suis faite (ben en fait, je lui ai carrément tourné le dos, pour pas le voir nan ! :p ), par la suite, j'ai réussie à me concentrer et j'y ai même pris plaisir, c'était marrant. Trés constructif, je trouve.

Lien à poster
Partager sur d’autres sites
  • 1 month later...

Veuillez vous connecter pour commenter

Vous pourrez laisser un commentaire après vous êtes connecté.



Connectez-vous maintenant
×
×
  • Créer...