Aller au contenu

[Miyavi] Selfish love


Messages recommandés

Je cherche comment il fait certains trucs et la tab.

 

http://fr.youtube.com/watch?v=hVsAceh55gQ

 

en priorité la tab, et au debut a partir de la 6eme seconde precisement ej comprends pas ce qu'il fait, explications?

 

mais je recherche tout d'abord et surtout la tab et surtout c'est l'intro qui m'interesse.

Lien à poster
Partager sur d’autres sites


Palm Mute or Left Hand Mute : X
Slide Down : 
Slide Up : /
Tremolo : ~
Harmonics : ()
Hammer On : h
Pull Off : p
Pick towards you : ^ under the actual tab lines
Bend up : ^ within the tab itself
Re-pick during bend : r after ^

Intro :

|----------------------------------------------------------------|
|----------------------------------------------------------------|
|----------------------------------------------------------------|
|----------------------------------7-----------------------------|     Percussion bit
|-------2-2-2-2/4-2-2-2/6-5------------5p0-----------------------|
|--10--0-0-3-0/5-0-3-0/5-4---0-0-5p0------6---xxxxxxx-----------|

then...

|------------------------------|
|------------------------------|
|------------------------------|
|------------------------------|
|--0-0h5--0h7--0h8--7-5-2------|
|--0-0h3--0h5--0h6--5-3-0------|

Main :

|---------------------------------------(7)----------------------(5)-(7)-(11)-(12)-----|
|---------------------------------------(7)----------------------(5)-(7)-(11)-(12)-----|
|---------------------------------------(7)----------------------(5)-(7)-(11)-(12)-----|
|--------------3/4--2--------3/4--2--------------3/4--2--------------------------------|
|--10---2-2---1/2--0--2-2---1/2--0--2-----2-2---1/2--0--2-2---------------------------|
|--10---0-0-----------0-0------------0-----0-0-----------0-0--------------------------|

|-----------------------------------------------------------------------|
|-----------------------------------------------------------------------|
|-------------------------------------------3/4--2----------------------|
|--------3/4--2--------3/4--2---------------1/2--0----------------------|
|--2-2---1/2--0--2-2---1/2--0--2-2----2-2----------2-2----3-2-----------|
|--0-0-----------0-0------------0-0----0-0----------0-0----1-0----------|

(Note - I haven't included the muted strings, as Miyavi does it so often and you can
much figure it out if you watch or listen to the song)

Slight Alteration (Before 2nd Verse) :

|---------------------------------------|
|---------------------------------------|
|---------------------------------------|
|--0h3/4--2------0h3/4--2---------------|
|--0h1/2--0--2---0h1/2--0--2---3--------|
|-------------0-------------0---1-------|

Chords :

Played in conjunction with Main riff half-way through the song...

|--------|
|--3-----|
|--3-----|
|--2-----| x8   First, then on second play...
|--3-----|
|--------|

|------         -------         -------------|
|--3---         ---2---         ---2/14------|
|--3---         ---2---         ---2/14------|
|--2--- x8    ---1--- x3    ---1/13----------|
|--3---         ---2---         ---2/14------|
|------         -------         -------------|

Higher Bit :

|---------------------------------------------------------------|
|---------------------------------------------------------------|
|---------------------------------------------------------------|
|---9-9---5/7--5/7----------------------------------------------|
|---7-7---5/7--5/7--9-9--7--5/7--5/7--5/7--5/7--------3---------|
|--------------------7-7--5--3/5--3/5--3/5--3/5--3^p0--1--------|

 

si vosu voulez l'apprendre :top: !

Lien à poster
Partager sur d’autres sites

Veuillez vous connecter pour commenter

Vous pourrez laisser un commentaire après vous êtes connecté.



Connectez-vous maintenant
×
×
  • Créer...