Aller au contenu

[Ne-Yo] So sick


Messages recommandés

Verse & Chorus:
    Ebm       Bmaj7     Abm       Db7
e|--------------6-----------------------------------|
B|-----6----------7------------------6----6---------|
G|-------6------------------4-------4----4----------| Repeat
D|---8---------8-----------4-4-----6----6-----------|
A|--6-------------------4h6-------4----5------------|
E|------------7---------4---------------------------|

End of Verse:

e|-1h2--1h2---1h2----1h2---1h2-----1h2----1h2----1h2-------|
B|-2----2-----2------2-----2-------2------2------2---------|
G|---------------------------------------------------------|
D|---------------------------------------------------------|
A|-2----2-----2------2-----2-------2------2------2---------|
E|---------------------------------------------------------|

Bridge:
     Db7   Bmaj7  Db7  Bmaj7  Db7  Bmaj7  Db7   Bb7#5
e|-----------2-----------2-----------2---------------------|
B|----6------4------6----4-----6-----4------6-----7--------|
G|----4------3------4----3-----4-----3------4-----7--------|
D|----6------4------6----4-----6-----4------6-----6--------|
A|----4------2------4----2-----4-----2------4--------------|
E|------------------------------------------------6--------|

Lien à poster
Partager sur d’autres sites

Veuillez vous connecter pour commenter

Vous pourrez laisser un commentaire après vous êtes connecté.



Connectez-vous maintenant
×
×
  • Créer...