Aller au contenu

[Nirvana] Come as you are


Messages recommandés

bonjour,

j'espere que la reponse n'a pas ete donné mais je cherche la tab de come as you are!!! je ne la trouve pas.

j'espere que quelqu'un pourra me dire ou la trouver car j'aimerai bien que ce soit la premiere musique que je joue!!! :guitare:

merci

Lien à poster
Partager sur d’autres sites

Ben en fait l'unplugged c'est mieux si tu joue a l'acoustique

 

pour la tab ca change pas beaucoup , juste 2-3 détail

 

D#||------------------------------------|-------------------------|
A#||------------------------------------|-------------------------|
F#||------------------------------------|-------------------------|
C#||------------------------------------|-------------------------|
G#||------------------------------------|-------0-----0-----------|
D#||---------------------------0--0--1--|--2-------2-----2--2--1--|


                                                                                  x6
|--------------------------|-------------------------|---------------------------|
|--------------------------|-------------------------|---------------------------|
|*-------------------------|-------------------------|--------------------------*|
|*-------------------------|-------------------------|--------------------------*|
|-----2-----------2--------|-------0-----0-----------|-----2-----------2---------|
|--0-----0--0--------0--1--|--2-------2-----2--2--1--|--0-----0--0--------0--1---|




-------------------------|--------------------------|-------------------------|
-------------------------|--------------------------|-------------------------|
-------------------------|--------------------------|-------------------------|
-------------------------|--------------------------|-------------------------|
-------0-----0-----------|-----2-----------2--------|-------0-----0-----------|
--2-------2-----2--2--1--|--0-----0--0--------0--1--|--2-------2-----2--2--1--|


                                                    Chorus

--------------------------|-------------------------|----------------0--------|
--------------------------|-------------------------|-----------0----0--0--0--|
--------------------------|-------------------------|-----------1----1--1--1--|
--------------------------|-------------------------|-----------2----2--2--2--|
-----2-----------2--------|-------0-----0-----------|-----2-------------------|
--0-----0--0--------0--1--|--2-------2-----2--2--1--|--0-----0----------------|



----------2----2--------|--------------------------|----------2----2--------|
----------2----2--------|--2--2--2--2--2--2--2--0--|----------2----2--------|
----------2----2--------|--2--2--2--2--2--2--2--0--|----------2----2--------|
--4----4--4----4--4-----|--2--2--2--2--2--2--2--0--|--4----4--4----4--4-----|
--4----4----------4--0--|--0--0--0--0--0--0--0--0--|--4----4--L-------4--0--|
--2----2----------2--0--|--------------------------|--2----2--L-------2--0--|



--------------------------|----------2----2--------|--------------------------|
--2--2--2--2--2--2--2--0--|----------2----2--------|-----2--2--2-----2--2--2--|
--2--2--2--2--2--2--2--0--|----------2----2--------|-----2--2--2-----2--2--2--|
--2--2--2--2--2--2--2--0--|--4----4--4----4--4-----|-----2--2--2-----2--2--2--|
--0--0--0--0--0--0--0--0--|--4----4----------4--0--|--0-----0--0-----0--0--0--|
--------------------------|--2----2----------2--0--|--------------------------|



----------2----2--------|---------------------------||
----------2----2--------|--2--2--2--2--2------------||
----------2----2--------|--2--2--2--2--2-----------*||
--4----4--4----4--4-----|--2--2--2--2--2-----------*||
--4----4----------4--0--|--0--0--0--0--0------------||
--2----2----------2--0--|-----------------0--0--1---||


Bridge


--0--0--0--0--0--0--0-----|-------------------------|--2------2-----2--2-----|
--2--2--2--2--2--2--2--0--|--4----4--4-----4--4--0--|--3------3-----3--3--0--|
--2--2--2--2--2--2--2--0--|--4----4--4-----4--4--0--|--2------2-----2--2--0--|
--2--2--2--2--2--2--2--0--|--4----4--4-----4--4--0--|--0------0-----0--0--0--|
--0--0--0--0--0--0--0--0--|--2----2--2-----2--2--0--|---------------------0--|
--------------------------|-------------------------|------------------------|



-------------------------|--2------2-----2--2-----|-------------------------|
--4----4--4-----4--4--0--|--3------3-----3--3--0--|--4----4--4-----4--4--0--|
--4----4--4-----4--4--0--|--2------2-----2--2--0--|--4----4--4-----4--4--0--|
--4----4--4-----4--4--0--|--0------0-----0--0--0--|--4----4--4-----4--4--0--|
--2----2--2-----2--2--0--|---------------------0--|--2----2--2-----2--2--0--|
-------------------------|------------------------|-------------------------|



--2------2-----2--2-----|-------------------------|--2--2--2--2--2-----------|
--3------3-----3--3--0--|--4----4--4-----4--4--0--|--3--3--3--3--3-----------|
--2------2-----2--2--0--|--4----4--4-----4--4--0--|--2--2--2--2--2-----------|
--0------0-----0--0--0--|--4----4--4-----4--4--0--|--0--0--0--0--0-----------|
---------------------0--|--2----2--2-----2--2--0--|--------------------------|
------------------------|-------------------------|-----------------0--0--1--|...ect

 

 

Voila pour le rythme faut que tu joue en meme temp que la chanson , au fur et a mesur ca sera identique...

Lien à poster
Partager sur d’autres sites

Veuillez vous connecter pour commenter

Vous pourrez laisser un commentaire après vous êtes connecté.



Connectez-vous maintenant
×
×
  • Créer...