Aller au contenu

[Nirvana] Frances farmer will have her revenge on Seattle


Messages recommandés

Vu que ultimate guitar n'en voulait vraiment pas : y'aura que ceux qui connaissent ce forum qui y auront droit. Désolé pour les problèmes de formatages : je n'arrive pas à adapter ma tablature sur ce site.

------------------------------------------------------------------------------------------------------

(ONLY THE CHORDS HERE : CAN'T BE ARSED INCLUDING THE STRUMMING PATTERNS <3)

THE MAIN GUITAR OUT OF THE MANY USED IN THE STUDIO VERSION IS TABBED HERE : I HAVEN'T TABBED THE ONES WHO DID
THE ARRANGEMENTS

ENJOY

************************************

| /   Slide up
| \   Slide down          order : INTRO, VERSE, CHORUS 1, VERSE, CHORUS 2, BRIDGE, VERSE, CHORUS 3, OUTRO
| x   Dead note
| b   Bend
| PM  Palm mute

-------------------------------------------------------------------------------------------------

[Intro + VERSES)

e| -----------------------------------------------------------------------------------------|
B| --------------------------3------------------------------------------------------------- |
G| ---------------------------3------------------------------------------------------------|
D| -5\1/4\1\4----------------3--------------1-3-4---------------------------------------- |
A| -5\1/4\1\4----------------1--------------1-3-4-----------------------------------------|
D| -5\1/4\1\4-------------------------------1-3-4-----------------------------------------|
  .......                                                               (never played last line of verses)  
  PM (no distortion)              |  distortion  

(Slides not palm muted : only the power chords are)

[CHORUS 1]

e|--------------------------------------------------------------------------------------|
B|-5/8\6----3--4------------------------------------------------------------------------|
G|-5/8\6----3--4------------------------------------------------------------------------|
B|-5/8\6----3--4------------------------------------------------------------------------| 3X
A|-3/6\4----1--2------------------------------------------------------------------------|
D|--------------------------------------------------------------------------------------|

e|--------------X-----------------------------------------------------------------------|
B|-3-1-3-1------X-----------------------------------------------------------------------|
G|-3-1-3-1------X-----------------------------------------------------------------------|
D|-3-1-3-1------4-----3-----4-5---------------------------------------------------------|
A|-1-x-1-x------4-----3-----4-5---------------------------------------------------------|
D|--------------4-----3-----4-5---------------------------------------------------------|
                                                    .  
                                                    PM (goes back into verse)


[CHORUS 2]

e|--------------------------------------------------------------------------------------|
B|-5/8\6----3--4------------------------------------------------------------------------|
G|-5/8\6----3--4------------------------------------------------------------------------| 3X
B|-5/8\6----3--4------------------------------------------------------------------------|
A|-3/6\4----1--2------------------------------------------------------------------------|
D|--------------------------------------------------------------------------------------|

e|--------------x-----------------------------------------------------------------------|
B|-3-1-3-1------x-----------------------------------------------------------------------|
G|-3-1-3-1------x-----------------------------------------------------------------------|
D|-3-1-3-1------4-----3-----X-X-X-X-X-X-------------------------------------------------|
A|-1-x-1-x------4-----3-----X-X-X-X-X-X-------------------------------------------------|
D|--------------4-----3-----X-X-X-X-X-X-------------------------------------------------|

                                               (fast strumming)
[Bridge]

e|--------------------------------------------------------------------------------------|
B|------/8---------5---5b-----4-3-------------------------------------------------------|
G|------/8---------5---5b-----4-3-0-----------------------------------------------------| 3X
D|--5---/8--(X3)---5---5b-----4-3-0-----------------------------------------------------|
A|--5---/6---------3---3b-----2-1-0-----------------------------------------------------|
D|--5-----------------------------------------------------------------------------------|

e|--------------------------------------------------------------------------------------|
B|--3---2-1----1------------------------------------------------------------------------|
G|--3---2-1----1------------------------------------------------------------------------|
D|--3---2-1----1--4----4-3----4-5--------------------------------------------------------|
A|--1---0-x----x--4----4-3----4-5--------------------------------------------------------|
D|----------------4----4-3----4-5--------------------------------------------------------|
                                                        .
                                                        PM (goes back into last verse)

[LAST CHORUS + Outro]

e|--------------------------------------------------------------------------------------|
B|-5/8\6----3--4------------------------------------------------------------------------|
G|-5/8\6----3--4------------------------------------------------------------------------|
B|-5/8\6----3--4------------------------------------------------------------------------| 3X
A|-3/6\4----1--2------------------------------------------------------------------------|
D|--------------------------------------------------------------------------------------|

e|--------------------------------------------------------------------------------------|
B|-3-1-3-1------------------------------------------------------------------------------|
G|-3-1-3-1------------------------------------------------------------------------------|
A|-1-x-1-x-------------4-----3-----4--5/17----------------------------------------------|
A|-1-x-1-x-------------4-----3-----4--5/17----------------------------------------------|
D|---------------------4-----3-----4--5/17----------------------------------------------|

 

 

Lien à poster
Partager sur d’autres sites
  • toffy changed the title to [Nirvana] Frances farmer will have her revenge on Seattle

Veuillez vous connecter pour commenter

Vous pourrez laisser un commentaire après vous êtes connecté.



Connectez-vous maintenant
×
×
  • Créer...